ISO-10303-21;
HEADER;
FILE_DESCRIPTION (( 'STEP AP214' ),
    '1' );
FILE_NAME ('096p0090903m6.STEP',
    '2014-08-18T12:22:27',
    ( '' ),
    ( '' ),
    'SwSTEP 2.0',
    'SolidWorks 2014',
    '' );
FILE_SCHEMA (( 'AUTOMOTIVE_DESIGN' ));
ENDSEC;

DATA;
#1 = PRESENTATION_STYLE_ASSIGNMENT (( #35 ) ) ;
#2 = CIRCLE ( 'NONE', #288, 2.500000000000000400 ) ;
#3 = EDGE_LOOP ( 'NONE', ( #4, #46, #193, #338 ) ) ;
#4 = ORIENTED_EDGE ( 'NONE', *, *, #153, .F. ) ;
#5 = VERTEX_POINT ( 'NONE', #315 ) ;
#6 = VERTEX_POINT ( 'NONE', #223 ) ;
#7 = APPLICATION_PROTOCOL_DEFINITION ( 'draft international standard', 'automotive_design', 1998, #9 ) ;
#8 = LINE ( 'NONE', #111, #284 ) ;
#9 = APPLICATION_CONTEXT ( 'automotive_design' ) ;
#10 = ORIENTED_EDGE ( 'NONE', *, *, #34, .F. ) ;
#11 = PRODUCT_CONTEXT ( 'NONE', #47, 'mechanical' ) ;
#12 = PRODUCT_DEFINITION_CONTEXT ( 'detailed design', #9, 'design' ) ;
#13 = DIRECTION ( 'NONE',  ( 1.000000000000000000, 0.0000000000000000000, 0.0000000000000000000 ) ) ;
#14 = LINE ( 'NONE', #306, #154 ) ;
#15 = EDGE_CURVE ( 'NONE', #265, #203, #305, .T. ) ;
#16 = EDGE_LOOP ( 'NONE', ( #165, #158, #285, #222 ) ) ;
#17 = DIRECTION ( 'NONE',  ( 0.0000000000000000000, 0.0000000000000000000, 1.000000000000000000 ) ) ;
#18 = PRODUCT_DEFINITION_SHAPE ( 'NONE', 'NONE',  #137 ) ;
#19 = EDGE_LOOP ( 'NONE', ( #332, #119, #60, #132 ) ) ;
#20 =( NAMED_UNIT ( * ) SI_UNIT ( $, .STERADIAN. ) SOLID_ANGLE_UNIT ( ) );
#21 = VECTOR ( 'NONE', #122, 1000.000000000000000 ) ;
#22 = SURFACE_SIDE_STYLE ('',( #241 ) ) ;
#23 = EDGE_CURVE ( 'NONE', #262, #5, #116, .T. ) ;
#24 = CIRCLE ( 'NONE', #329, 2.500000000000000400 ) ;
#25 = EDGE_CURVE ( 'NONE', #55, #261, #45, .T. ) ;
#26 = VECTOR ( 'NONE', #133, 1000.000000000000000 ) ;
#27 = ORIENTED_EDGE ( 'NONE', *, *, #31, .T. ) ;
#28 = FILL_AREA_STYLE ('',( #120 ) ) ;
#29 =( NAMED_UNIT ( * ) SI_UNIT ( $, .STERADIAN. ) SOLID_ANGLE_UNIT ( ) );
#30 =( NAMED_UNIT ( * ) PLANE_ANGLE_UNIT ( ) SI_UNIT ( $, .RADIAN. ) );
#31 = EDGE_CURVE ( 'NONE', #55, #314, #256, .T. ) ;
#32 = VECTOR ( 'NONE', #118, 1000.000000000000000 ) ;
#33 =( LENGTH_UNIT ( ) NAMED_UNIT ( * ) SI_UNIT ( .MILLI., .METRE. ) );
#34 = EDGE_CURVE ( 'NONE', #101, #76, #37, .T. ) ;
#35 = SURFACE_STYLE_USAGE ( .BOTH. , #36 ) ;
#36 = SURFACE_SIDE_STYLE ('',( #135 ) ) ;
#37 = LINE ( 'NONE', #129, #173 ) ;
#38 = EDGE_CURVE ( 'NONE', #314, #215, #246, .T. ) ;
#39 =( LENGTH_UNIT ( ) NAMED_UNIT ( * ) SI_UNIT ( .MILLI., .METRE. ) );
#40 = EDGE_LOOP ( 'NONE', ( #171, #250, #326, #128, #257, #184 ) ) ;
#41 = SURFACE_STYLE_USAGE ( .BOTH. , #22 ) ;
#42 = CYLINDRICAL_SURFACE ( 'NONE', #219, 2.500000000000000400 ) ;
#43 = FILL_AREA_STYLE ('',( #66 ) ) ;
#44 = CARTESIAN_POINT ( 'NONE',  ( 4.500000000000000900, 4.500000000000000000, 0.0000000000000000000 ) ) ;
#45 = LINE ( 'NONE', #318, #108 ) ;
#46 = ORIENTED_EDGE ( 'NONE', *, *, #168, .T. ) ;
#47 = APPLICATION_CONTEXT ( 'automotive_design' ) ;
#48 = APPLICATION_PROTOCOL_DEFINITION ( 'draft international standard', 'automotive_design', 1998, #47 ) ;
#49 = ORIENTED_EDGE ( 'NONE', *, *, #93, .T. ) ;
#50 = FACE_OUTER_BOUND ( 'NONE', #280, .T. ) ;
#51 = VERTEX_POINT ( 'NONE', #82 ) ;
#52 =( NAMED_UNIT ( * ) SI_UNIT ( $, .STERADIAN. ) SOLID_ANGLE_UNIT ( ) );
#53 = ORIENTED_EDGE ( 'NONE', *, *, #310, .F. ) ;
#54 =( NAMED_UNIT ( * ) PLANE_ANGLE_UNIT ( ) SI_UNIT ( $, .RADIAN. ) );
#55 = VERTEX_POINT ( 'NONE', #247 ) ;
#56 = PRODUCT ( '096p0090903m6', '096p0090903m6', '', ( #11 ) ) ;
#57 =( LENGTH_UNIT ( ) NAMED_UNIT ( * ) SI_UNIT ( .MILLI., .METRE. ) );
#58 = EDGE_CURVE ( 'NONE', #328, #51, #99, .T. ) ;
#59 = EDGE_CURVE ( 'NONE', #262, #190, #303, .T. ) ;
#60 = ORIENTED_EDGE ( 'NONE', *, *, #290, .F. ) ;
#61 =( NAMED_UNIT ( * ) PLANE_ANGLE_UNIT ( ) SI_UNIT ( $, .RADIAN. ) );
#62 = ORIENTED_EDGE ( 'NONE', *, *, #59, .T. ) ;
#63 = ORIENTED_EDGE ( 'NONE', *, *, #25, .T. ) ;
#64 = DIRECTION ( 'NONE',  ( 1.000000000000000000, 0.0000000000000000000, 0.0000000000000000000 ) ) ;
#65 = ORIENTED_EDGE ( 'NONE', *, *, #79, .T. ) ;
#66 = FILL_AREA_STYLE_COLOUR ( '', #212 ) ;
#67 = DIRECTION ( 'NONE',  ( 0.0000000000000000000, 0.0000000000000000000, 1.000000000000000000 ) ) ;
#68 = FACE_OUTER_BOUND ( 'NONE', #86, .T. ) ;
#69 = FACE_OUTER_BOUND ( 'NONE', #259, .T. ) ;
#70 = ORIENTED_EDGE ( 'NONE', *, *, #168, .F. ) ;
#71 = DIRECTION ( 'NONE',  ( 0.0000000000000000000, 1.000000000000000000, 0.0000000000000000000 ) ) ;
#72 = DIRECTION ( 'NONE',  ( 0.0000000000000000000, 1.000000000000000000, 0.0000000000000000000 ) ) ;
#73 = EDGE_CURVE ( 'NONE', #5, #175, #24, .T. ) ;
#74 = MANIFOLD_SOLID_BREP ( 'Fase1', #342 ) ;
#75 = CARTESIAN_POINT ( 'NONE',  ( 7.999999999999979600, 1.357204279517353100E-015, 3.000000000000000000 ) ) ;
#76 = VERTEX_POINT ( 'NONE', #78 ) ;
#77 = EDGE_CURVE ( 'NONE', #6, #321, #275, .T. ) ;
#78 = CARTESIAN_POINT ( 'NONE',  ( 1.000000000000017300, 9.000000000000000000, 3.000000000000000000 ) ) ;
#79 = EDGE_CURVE ( 'NONE', #51, #76, #160, .T. ) ;
#80 = CARTESIAN_POINT ( 'NONE',  ( 0.0000000000000000000, 0.0000000000000000000, 0.0000000000000000000 ) ) ;
#81 = LINE ( 'NONE', #287, #232 ) ;
#82 = CARTESIAN_POINT ( 'NONE',  ( 7.999999999999979600, 9.000000000000000000, 3.000000000000000400 ) ) ;
#83 = EDGE_CURVE ( 'NONE', #76, #265, #239, .T. ) ;
#84 = DIRECTION ( 'NONE',  ( -0.0000000000000000000, -0.0000000000000000000, -1.000000000000000000 ) ) ;
#85 = DIRECTION ( 'NONE',  ( 0.0000000000000000000, 0.0000000000000000000, 1.000000000000000000 ) ) ;
#86 = EDGE_LOOP ( 'NONE', ( #65, #330, #276, #149 ) ) ;
#87 = CARTESIAN_POINT ( 'NONE',  ( 0.0000000000000000000, 0.0000000000000000000, 3.000000000000000000 ) ) ;
#88 = CYLINDRICAL_SURFACE ( 'NONE', #174, 2.500000000000000400 ) ;
#89 = CARTESIAN_POINT ( 'NONE',  ( 0.0000000000000000000, 0.0000000000000000000, 0.0000000000000000000 ) ) ;
#90 = EDGE_CURVE ( 'NONE', #321, #215, #14, .T. ) ;
#91 = ORIENTED_EDGE ( 'NONE', *, *, #230, .T. ) ;
#92 = VECTOR ( 'NONE', #340, 1000.000000000000000 ) ;
#93 = EDGE_CURVE ( 'NONE', #261, #6, #8, .T. ) ;
#94 = CARTESIAN_POINT ( 'NONE',  ( 9.000000000000000000, 1.479664914899593400E-015, 1.999999999999993100 ) ) ;
#95 = CARTESIAN_POINT ( 'NONE',  ( 0.0000000000000000000, 0.0000000000000000000, 1.999999999999993100 ) ) ;
#96 = DIRECTION ( 'NONE',  ( -0.0000000000000000000, -0.0000000000000000000, -1.000000000000000000 ) ) ;
#97 = FACE_OUTER_BOUND ( 'NONE', #3, .T. ) ;
#98 = CARTESIAN_POINT ( 'NONE',  ( 4.500000000000000900, 4.500000000000000000, 3.000000000000000000 ) ) ;
#99 = LINE ( 'NONE', #136, #162 ) ;
#100 = DIRECTION ( 'NONE',  ( -1.000000000000000000, 0.0000000000000000000, 0.0000000000000000000 ) ) ;
#101 = VERTEX_POINT ( 'NONE', #304 ) ;
#102 = CARTESIAN_POINT ( 'NONE',  ( 7.999999999999981300, 9.000000000000000000, 3.000000000000000000 ) ) ;
#103 = DIRECTION ( 'NONE',  ( 1.000000000000000000, 1.224606353822377300E-016, 0.0000000000000000000 ) ) ;
#104 = FACE_OUTER_BOUND ( 'NONE', #271, .T. ) ;
#105 = CARTESIAN_POINT ( 'NONE',  ( 2.000000000000000000, 4.500000000000000000, 3.000000000000000000 ) ) ;
#106 = CARTESIAN_POINT ( 'NONE',  ( 1.000000000000017500, 6.123031769111991100E-017, 3.000000000000000000 ) ) ;
#107 = CARTESIAN_POINT ( 'NONE',  ( 9.000000000000000000, 9.000000000000000000, 0.0000000000000000000 ) ) ;
#108 = VECTOR ( 'NONE', #183, 1000.000000000000000 ) ;
#109 = CARTESIAN_POINT ( 'NONE',  ( 0.0000000000000000000, 0.0000000000000000000, 0.0000000000000000000 ) ) ;
#110 = CARTESIAN_POINT ( 'NONE',  ( 0.0000000000000000000, 0.0000000000000000000, 3.000000000000000000 ) ) ;
#111 = CARTESIAN_POINT ( 'NONE',  ( 0.0000000000000000000, 9.000000000000000000, 0.0000000000000000000 ) ) ;
#112 = VECTOR ( 'NONE', #144, 1000.000000000000000 ) ;
#113 = CARTESIAN_POINT ( 'NONE',  ( 0.0000000000000000000, 9.000000000000000000, 3.000000000000000000 ) ) ;
#114 = DIRECTION ( 'NONE',  ( 0.0000000000000000000, 0.0000000000000000000, -1.000000000000000000 ) ) ;
#115 = DIRECTION ( 'NONE',  ( 1.000000000000000000, 0.0000000000000000000, 0.0000000000000000000 ) ) ;
#116 = LINE ( 'NONE', #294, #192 ) ;
#117 = PRODUCT_RELATED_PRODUCT_CATEGORY ( 'part', '', ( #56 ) ) ;
#118 = DIRECTION ( 'NONE',  ( -0.0000000000000000000, -0.0000000000000000000, -1.000000000000000000 ) ) ;
#119 = ORIENTED_EDGE ( 'NONE', *, *, #31, .F. ) ;
#120 = FILL_AREA_STYLE_COLOUR ( '', #182 ) ;
#121 = FACE_OUTER_BOUND ( 'NONE', #19, .T. ) ;
#122 = DIRECTION ( 'NONE',  ( 0.7071067811865515700, -0.0000000000000000000, -0.7071067811865435800 ) ) ;
#123 = DIRECTION ( 'NONE',  ( -1.000000000000000000, -1.224606353822377300E-016, 0.0000000000000000000 ) ) ;
#124 = PRODUCT_DEFINITION_FORMATION_WITH_SPECIFIED_SOURCE ( 'ANY', '', #56, .NOT_KNOWN. ) ;
#125 = ORIENTED_EDGE ( 'NONE', *, *, #23, .F. ) ;
#126 = CARTESIAN_POINT ( 'NONE',  ( 0.0000000000000000000, 0.0000000000000000000, 3.000000000000000000 ) ) ;
#127 = PLANE ( 'NONE',  #195 ) ;
#128 = ORIENTED_EDGE ( 'NONE', *, *, #90, .T. ) ;
#129 = CARTESIAN_POINT ( 'NONE',  ( 1.000000000000017500, 9.000000000000000000, 3.000000000000000000 ) ) ;
#130 = PLANE ( 'NONE',  #191 ) ;
#131 = CARTESIAN_POINT ( 'NONE',  ( 0.0000000000000000000, 0.0000000000000000000, 3.000000000000000000 ) ) ;
#132 = ORIENTED_EDGE ( 'NONE', *, *, #58, .F. ) ;
#133 = DIRECTION ( 'NONE',  ( -0.0000000000000000000, -0.0000000000000000000, -1.000000000000000000 ) ) ;
#134 = ORIENTED_EDGE ( 'NONE', *, *, #83, .F. ) ;
#135 = SURFACE_STYLE_FILL_AREA ( #43 ) ;
#136 = CARTESIAN_POINT ( 'NONE',  ( 7.999999999999981300, 9.000000000000000000, 3.000000000000000000 ) ) ;
#137 = PRODUCT_DEFINITION ( 'UNKNOWN', '', #124, #12 ) ;
#138 = ORIENTED_EDGE ( 'NONE', *, *, #73, .F. ) ;
#139 = DIRECTION ( 'NONE',  ( -0.7071067811865513500, 0.0000000000000000000, -0.7071067811865438000 ) ) ;
#140 = ORIENTED_EDGE ( 'NONE', *, *, #79, .F. ) ;
#141 = DIRECTION ( 'NONE',  ( 0.7071067811865438000, 0.0000000000000000000, -0.7071067811865513500 ) ) ;
#142 = DIRECTION ( 'NONE',  ( -1.224606353822377300E-016, 1.000000000000000000, 0.0000000000000000000 ) ) ;
#143 = CARTESIAN_POINT ( 'NONE',  ( 9.000000000000000000, 1.102145718440139500E-015, 1.999999999999993100 ) ) ;
#144 = DIRECTION ( 'NONE',  ( 0.0000000000000000000, 1.000000000000000000, 0.0000000000000000000 ) ) ;
#145 = EDGE_LOOP ( 'NONE', ( #270, #207 ) ) ;
#146 = AXIS2_PLACEMENT_3D ( 'NONE', #80, #17, #13 ) ;
#147 = CARTESIAN_POINT ( 'NONE',  ( 9.000000000000000000, 1.102145718440139500E-015, 0.0000000000000000000 ) ) ;
#148 = CIRCLE ( 'NONE', #298, 2.500000000000000400 ) ;
#149 = ORIENTED_EDGE ( 'NONE', *, *, #58, .T. ) ;
#150 = ORIENTED_EDGE ( 'NONE', *, *, #290, .T. ) ;
#151 = PLANE ( 'NONE',  #210 ) ;
#152 =( GEOMETRIC_REPRESENTATION_CONTEXT ( 3 ) GLOBAL_UNCERTAINTY_ASSIGNED_CONTEXT ( ( #164 ) ) GLOBAL_UNIT_ASSIGNED_CONTEXT ( ( #33, #30, #29 ) ) REPRESENTATION_CONTEXT ( 'NONE', 'WORKASPACE' ) );
#153 = EDGE_CURVE ( 'NONE', #190, #175, #81, .T. ) ;
#154 = VECTOR ( 'NONE', #299, 1000.000000000000000 ) ;
#155 = MECHANICAL_DESIGN_GEOMETRIC_PRESENTATION_REPRESENTATION (  '', ( #159 ), #152 ) ;
#156 = DIRECTION ( 'NONE',  ( -0.7071067811865515700, 0.0000000000000000000, 0.7071067811865435800 ) ) ;
#157 = PRESENTATION_LAYER_ASSIGNMENT (  '', '', ( #159 ) ) ;
#158 = ORIENTED_EDGE ( 'NONE', *, *, #93, .F. ) ;
#159 = STYLED_ITEM ( 'NONE', ( #1 ), #323 ) ;
#160 = LINE ( 'NONE', #331, #92 ) ;
#161 = CARTESIAN_POINT ( 'NONE',  ( 1.000000000000017500, 9.000000000000000000, 3.000000000000000000 ) ) ;
#162 = VECTOR ( 'NONE', #71, 1000.000000000000000 ) ;
#163 = PLANE ( 'NONE',  #214 ) ;
#164 = UNCERTAINTY_MEASURE_WITH_UNIT (LENGTH_MEASURE( 1.000000000000000100E-005 ), #33, 'distance_accuracy_value', 'NONE');
#165 = ORIENTED_EDGE ( 'NONE', *, *, #77, .F. ) ;
#166 = SHAPE_DEFINITION_REPRESENTATION ( #18, #323 ) ;
#167 = CARTESIAN_POINT ( 'NONE',  ( 7.999999999999981300, 9.000000000000000000, 3.000000000000000000 ) ) ;
#168 = EDGE_CURVE ( 'NONE', #190, #262, #148, .T. ) ;
#169 = DIRECTION ( 'NONE',  ( -0.0000000000000000000, -0.0000000000000000000, -1.000000000000000000 ) ) ;
#170 = LINE ( 'NONE', #102, #21 ) ;
#171 = ORIENTED_EDGE ( 'NONE', *, *, #277, .F. ) ;
#172 = CARTESIAN_POINT ( 'NONE',  ( 4.500000000000000900, 4.500000000000000000, 3.000000000000000000 ) ) ;
#173 = VECTOR ( 'NONE', #234, 1000.000000000000000 ) ;
#174 = AXIS2_PLACEMENT_3D ( 'NONE', #98, #96, #100 ) ;
#175 = VERTEX_POINT ( 'NONE', #292 ) ;
#176 = DIRECTION ( 'NONE',  ( -1.000000000000000000, 0.0000000000000000000, 0.0000000000000000000 ) ) ;
#177 = DIRECTION ( 'NONE',  ( 0.0000000000000000000, -0.0000000000000000000, -1.000000000000000000 ) ) ;
#178 = DIRECTION ( 'NONE',  ( 0.0000000000000000000, -1.000000000000000000, 0.0000000000000000000 ) ) ;
#179 = FACE_OUTER_BOUND ( 'NONE', #197, .T. ) ;
#180 = ORIENTED_EDGE ( 'NONE', *, *, #77, .T. ) ;
#181 = EDGE_CURVE ( 'NONE', #314, #328, #274, .T. ) ;
#182 = COLOUR_RGB ( '',0.8941176470588234600, 0.9137254901960784000, 0.9294117647058823800 ) ;
#183 = DIRECTION ( 'NONE',  ( -0.0000000000000000000, -0.0000000000000000000, -1.000000000000000000 ) ) ;
#184 = ORIENTED_EDGE ( 'NONE', *, *, #181, .T. ) ;
#185 = ORIENTED_EDGE ( 'NONE', *, *, #38, .T. ) ;
#186 =( GEOMETRIC_REPRESENTATION_CONTEXT ( 3 ) GLOBAL_UNCERTAINTY_ASSIGNED_CONTEXT ( ( #336 ) ) GLOBAL_UNIT_ASSIGNED_CONTEXT ( ( #57, #54, #52 ) ) REPRESENTATION_CONTEXT ( 'NONE', 'WORKASPACE' ) );
#187 = DIRECTION ( 'NONE',  ( -1.000000000000000000, 0.0000000000000000000, -0.0000000000000000000 ) ) ;
#188 = PLANE ( 'NONE',  #238 ) ;
#189 = LINE ( 'NONE', #113, #32 ) ;
#190 = VERTEX_POINT ( 'NONE', #254 ) ;
#191 = AXIS2_PLACEMENT_3D ( 'NONE', #126, #115, #114 ) ;
#192 = VECTOR ( 'NONE', #283, 1000.000000000000000 ) ;
#193 = ORIENTED_EDGE ( 'NONE', *, *, #23, .T. ) ;
#194 = CARTESIAN_POINT ( 'NONE',  ( 0.0000000000000000000, 9.000000000000000000, 3.000000000000000000 ) ) ;
#195 = AXIS2_PLACEMENT_3D ( 'NONE', #131, #142, #123 ) ;
#196 = DIRECTION ( 'NONE',  ( -0.7071067811865513500, -8.659274570719402300E-017, -0.7071067811865438000 ) ) ;
#197 = EDGE_LOOP ( 'NONE', ( #10, #235, #339, #134 ) ) ;
#198 = CARTESIAN_POINT ( 'NONE',  ( 0.0000000000000000000, 9.000000000000000000, 3.000000000000000000 ) ) ;
#199 = FACE_OUTER_BOUND ( 'NONE', #16, .T. ) ;
#200 = DIRECTION ( 'NONE',  ( -1.000000000000000000, 0.0000000000000000000, -0.0000000000000000000 ) ) ;
#201 = DIRECTION ( 'NONE',  ( 0.0000000000000000000, 0.0000000000000000000, -1.000000000000000000 ) ) ;
#202 = PLANE ( 'NONE',  #245 ) ;
#203 = VERTEX_POINT ( 'NONE', #266 ) ;
#204 = PLANE ( 'NONE',  #233 ) ;
#205 = EDGE_CURVE ( 'NONE', #175, #5, #2, .T. ) ;
#206 = DIRECTION ( 'NONE',  ( -0.7071067811865435800, 0.0000000000000000000, -0.7071067811865515700 ) ) ;
#207 = ORIENTED_EDGE ( 'NONE', *, *, #205, .T. ) ;
#208 = CARTESIAN_POINT ( 'NONE',  ( 0.0000000000000000000, 9.000000000000000000, 0.0000000000000000000 ) ) ;
#209 = ADVANCED_FACE ( 'NONE', ( #69 ), #253, .F. ) ;
#210 = AXIS2_PLACEMENT_3D ( 'NONE', #161, #141, #139 ) ;
#211 = EDGE_LOOP ( 'NONE', ( #62, #337, #138, #125 ) ) ;
#212 = COLOUR_RGB ( '',0.8941176470588234600, 0.9137254901960784000, 0.9294117647058823800 ) ;
#213 = VECTOR ( 'NONE', #264, 1000.000000000000000 ) ;
#214 = AXIS2_PLACEMENT_3D ( 'NONE', #167, #206, #156 ) ;
#215 = VERTEX_POINT ( 'NONE', #251 ) ;
#216 = ADVANCED_FACE ( 'NONE', ( #199, #221 ), #202, .T. ) ;
#217 = ORIENTED_EDGE ( 'NONE', *, *, #252, .F. ) ;
#218 = ADVANCED_FACE ( 'NONE', ( #68, #302 ), #188, .F. ) ;
#219 = AXIS2_PLACEMENT_3D ( 'NONE', #172, #169, #176 ) ;
#220 = ADVANCED_FACE ( 'NONE', ( #50 ), #204, .F. ) ;
#221 = FACE_BOUND ( 'NONE', #145, .T. ) ;
#222 = ORIENTED_EDGE ( 'NONE', *, *, #90, .F. ) ;
#223 = CARTESIAN_POINT ( 'NONE',  ( 0.0000000000000000000, 9.000000000000000000, 0.0000000000000000000 ) ) ;
#224 = ADVANCED_FACE ( 'NONE', ( #260 ), #42, .F. ) ;
#225 = DIRECTION ( 'NONE',  ( 0.0000000000000000000, 0.0000000000000000000, 1.000000000000000000 ) ) ;
#226 = ADVANCED_FACE ( 'NONE', ( #121 ), #163, .F. ) ;
#227 = DIRECTION ( 'NONE',  ( -1.000000000000000000, 0.0000000000000000000, 0.0000000000000000000 ) ) ;
#228 = DIRECTION ( 'NONE',  ( 1.000000000000000000, 0.0000000000000000000, 0.0000000000000000000 ) ) ;
#229 = VECTOR ( 'NONE', #72, 1000.000000000000000 ) ;
#230 = EDGE_CURVE ( 'NONE', #215, #261, #313, .T. ) ;
#231 = ADVANCED_FACE ( 'NONE', ( #179 ), #151, .F. ) ;
#232 = VECTOR ( 'NONE', #293, 1000.000000000000000 ) ;
#233 = AXIS2_PLACEMENT_3D ( 'NONE', #198, #178, #177 ) ;
#234 = DIRECTION ( 'NONE',  ( 0.7071067811865513500, -0.0000000000000000000, 0.7071067811865438000 ) ) ;
#235 = ORIENTED_EDGE ( 'NONE', *, *, #324, .F. ) ;
#236 = VECTOR ( 'NONE', #84, 1000.000000000000000 ) ;
#237 = DIRECTION ( 'NONE',  ( 0.0000000000000000000, 0.0000000000000000000, 1.000000000000000000 ) ) ;
#238 = AXIS2_PLACEMENT_3D ( 'NONE', #194, #258, #187 ) ;
#239 = LINE ( 'NONE', #320, #291 ) ;
#240 = PRESENTATION_STYLE_ASSIGNMENT (( #41 ) ) ;
#241 = SURFACE_STYLE_FILL_AREA ( #28 ) ;
#242 = ADVANCED_FACE ( 'NONE', ( #249 ), #127, .F. ) ;
#243 = CARTESIAN_POINT ( 'NONE',  ( 4.500000000000000900, 4.500000000000000000, 0.0000000000000000000 ) ) ;
#244 = CARTESIAN_POINT ( 'NONE',  ( 9.000000000000000000, 1.102145718440139500E-015, 3.000000000000000000 ) ) ;
#245 = AXIS2_PLACEMENT_3D ( 'NONE', #208, #201, #200 ) ;
#246 = LINE ( 'NONE', #273, #26 ) ;
#247 = CARTESIAN_POINT ( 'NONE',  ( 9.000000000000000000, 9.000000000000000000, 1.999999999999993100 ) ) ;
#248 = ADVANCED_FACE ( 'NONE', ( #104 ), #130, .F. ) ;
#249 = FACE_OUTER_BOUND ( 'NONE', #40, .T. ) ;
#250 = ORIENTED_EDGE ( 'NONE', *, *, #15, .T. ) ;
#251 = CARTESIAN_POINT ( 'NONE',  ( 9.000000000000000000, 1.102145718440139500E-015, 0.0000000000000000000 ) ) ;
#252 = EDGE_CURVE ( 'NONE', #101, #6, #189, .T. ) ;
#253 = PLANE ( 'NONE',  #255 ) ;
#254 = CARTESIAN_POINT ( 'NONE',  ( 7.000000000000000900, 4.500000000000000000, 3.000000000000000000 ) ) ;
#255 = AXIS2_PLACEMENT_3D ( 'NONE', #244, #227, #225 ) ;
#256 = LINE ( 'NONE', #143, #309 ) ;
#257 = ORIENTED_EDGE ( 'NONE', *, *, #38, .F. ) ;
#258 = DIRECTION ( 'NONE',  ( 0.0000000000000000000, 0.0000000000000000000, -1.000000000000000000 ) ) ;
#259 = EDGE_LOOP ( 'NONE', ( #263, #27, #185, #91 ) ) ;
#260 = FACE_OUTER_BOUND ( 'NONE', #211, .T. ) ;
#261 = VERTEX_POINT ( 'NONE', #107 ) ;
#262 = VERTEX_POINT ( 'NONE', #105 ) ;
#263 = ORIENTED_EDGE ( 'NONE', *, *, #25, .F. ) ;
#264 = DIRECTION ( 'NONE',  ( -0.7071067811865515700, -8.659274570719404700E-017, 0.7071067811865435800 ) ) ;
#265 = VERTEX_POINT ( 'NONE', #106 ) ;
#266 = CARTESIAN_POINT ( 'NONE',  ( 0.0000000000000000000, 0.0000000000000000000, 1.999999999999993100 ) ) ;
#267 = DIRECTION ( 'NONE',  ( 1.000000000000000000, 0.0000000000000000000, 0.0000000000000000000 ) ) ;
#268 = CARTESIAN_POINT ( 'NONE',  ( 1.000000000000018200, 0.0000000000000000000, 3.000000000000000400 ) ) ;
#269 = DIRECTION ( 'NONE',  ( 0.0000000000000000000, 0.0000000000000000000, 1.000000000000000000 ) ) ;
#270 = ORIENTED_EDGE ( 'NONE', *, *, #73, .T. ) ;
#271 = EDGE_LOOP ( 'NONE', ( #53, #272, #295, #180 ) ) ;
#272 = ORIENTED_EDGE ( 'NONE', *, *, #324, .T. ) ;
#273 = CARTESIAN_POINT ( 'NONE',  ( 9.000000000000000000, 1.102145718440139500E-015, 3.000000000000000000 ) ) ;
#274 = LINE ( 'NONE', #282, #213 ) ;
#275 = LINE ( 'NONE', #109, #301 ) ;
#276 = ORIENTED_EDGE ( 'NONE', *, *, #277, .T. ) ;
#277 = EDGE_CURVE ( 'NONE', #265, #328, #325, .T. ) ;
#278 = ORIENTED_EDGE ( 'NONE', *, *, #34, .T. ) ;
#279 = CARTESIAN_POINT ( 'NONE',  ( 4.500000000000000900, 4.500000000000000000, 3.000000000000000000 ) ) ;
#280 = EDGE_LOOP ( 'NONE', ( #217, #278, #140, #150, #63, #49 ) ) ;
#281 = DIRECTION ( 'NONE',  ( 1.000000000000000000, 0.0000000000000000000, 0.0000000000000000000 ) ) ;
#282 = CARTESIAN_POINT ( 'NONE',  ( 7.999999999999981300, 1.734723475976807100E-015, 2.999999999999999600 ) ) ;
#283 = DIRECTION ( 'NONE',  ( -0.0000000000000000000, -0.0000000000000000000, -1.000000000000000000 ) ) ;
#284 = VECTOR ( 'NONE', #297, 1000.000000000000000 ) ;
#285 = ORIENTED_EDGE ( 'NONE', *, *, #230, .F. ) ;
#286 = DIRECTION ( 'NONE',  ( 0.0000000000000000000, -1.000000000000000000, 0.0000000000000000000 ) ) ;
#287 = CARTESIAN_POINT ( 'NONE',  ( 7.000000000000000900, 4.500000000000000000, 3.000000000000000000 ) ) ;
#288 = AXIS2_PLACEMENT_3D ( 'NONE', #243, #237, #228 ) ;
#289 = LINE ( 'NONE', #95, #229 ) ;
#290 = EDGE_CURVE ( 'NONE', #51, #55, #170, .T. ) ;
#291 = VECTOR ( 'NONE', #312, 1000.000000000000000 ) ;
#292 = CARTESIAN_POINT ( 'NONE',  ( 7.000000000000000900, 4.500000000000000000, 0.0000000000000000000 ) ) ;
#293 = DIRECTION ( 'NONE',  ( -0.0000000000000000000, -0.0000000000000000000, -1.000000000000000000 ) ) ;
#294 = CARTESIAN_POINT ( 'NONE',  ( 2.000000000000000000, 4.500000000000000000, 3.000000000000000000 ) ) ;
#295 = ORIENTED_EDGE ( 'NONE', *, *, #252, .T. ) ;
#296 = LINE ( 'NONE', #87, #236 ) ;
#297 = DIRECTION ( 'NONE',  ( -1.000000000000000000, -0.0000000000000000000, -0.0000000000000000000 ) ) ;
#298 = AXIS2_PLACEMENT_3D ( 'NONE', #279, #269, #267 ) ;
#299 = DIRECTION ( 'NONE',  ( 1.000000000000000000, 1.224606353822377300E-016, 0.0000000000000000000 ) ) ;
#300 = ADVANCED_FACE ( 'NONE', ( #97 ), #88, .F. ) ;
#301 = VECTOR ( 'NONE', #333, 1000.000000000000000 ) ;
#302 = FACE_BOUND ( 'NONE', #335, .T. ) ;
#303 = CIRCLE ( 'NONE', #334, 2.500000000000000400 ) ;
#304 = CARTESIAN_POINT ( 'NONE',  ( -1.084202172485504400E-016, 9.000000000000000000, 1.999999999999993100 ) ) ;
#305 = LINE ( 'NONE', #268, #317 ) ;
#306 = CARTESIAN_POINT ( 'NONE',  ( 0.0000000000000000000, 0.0000000000000000000, 0.0000000000000000000 ) ) ;
#307 = VECTOR ( 'NONE', #103, 1000.000000000000000 ) ;
#308 =( GEOMETRIC_REPRESENTATION_CONTEXT ( 3 ) GLOBAL_UNCERTAINTY_ASSIGNED_CONTEXT ( ( #327 ) ) GLOBAL_UNIT_ASSIGNED_CONTEXT ( ( #39, #61, #20 ) ) REPRESENTATION_CONTEXT ( 'NONE', 'WORKASPACE' ) );
#309 = VECTOR ( 'NONE', #286, 1000.000000000000000 ) ;
#310 = EDGE_CURVE ( 'NONE', #203, #321, #296, .T. ) ;
#311 = MECHANICAL_DESIGN_GEOMETRIC_PRESENTATION_REPRESENTATION (  '', ( #319 ), #308 ) ;
#312 = DIRECTION ( 'NONE',  ( 0.0000000000000000000, -1.000000000000000000, 0.0000000000000000000 ) ) ;
#313 = LINE ( 'NONE', #147, #112 ) ;
#314 = VERTEX_POINT ( 'NONE', #94 ) ;
#315 = CARTESIAN_POINT ( 'NONE',  ( 2.000000000000000000, 4.500000000000000000, 0.0000000000000000000 ) ) ;
#316 = PRESENTATION_LAYER_ASSIGNMENT (  '', '', ( #319 ) ) ;
#317 = VECTOR ( 'NONE', #196, 1000.000000000000000 ) ;
#318 = CARTESIAN_POINT ( 'NONE',  ( 9.000000000000000000, 9.000000000000000000, 3.000000000000000000 ) ) ;
#319 = STYLED_ITEM ( 'NONE', ( #240 ), #74 ) ;
#320 = CARTESIAN_POINT ( 'NONE',  ( 1.000000000000017500, 9.000000000000000000, 3.000000000000000000 ) ) ;
#321 = VERTEX_POINT ( 'NONE', #89 ) ;
#322 = ORIENTED_EDGE ( 'NONE', *, *, #59, .F. ) ;
#323 = ADVANCED_BREP_SHAPE_REPRESENTATION ( '096p0090903m6', ( #74, #146 ), #186 ) ;
#324 = EDGE_CURVE ( 'NONE', #203, #101, #289, .T. ) ;
#325 = LINE ( 'NONE', #110, #307 ) ;
#326 = ORIENTED_EDGE ( 'NONE', *, *, #310, .T. ) ;
#327 = UNCERTAINTY_MEASURE_WITH_UNIT (LENGTH_MEASURE( 1.000000000000000100E-005 ), #39, 'distance_accuracy_value', 'NONE');
#328 = VERTEX_POINT ( 'NONE', #75 ) ;
#329 = AXIS2_PLACEMENT_3D ( 'NONE', #44, #67, #64 ) ;
#330 = ORIENTED_EDGE ( 'NONE', *, *, #83, .T. ) ;
#331 = CARTESIAN_POINT ( 'NONE',  ( 0.0000000000000000000, 9.000000000000000000, 3.000000000000000000 ) ) ;
#332 = ORIENTED_EDGE ( 'NONE', *, *, #181, .F. ) ;
#333 = DIRECTION ( 'NONE',  ( -0.0000000000000000000, -1.000000000000000000, -0.0000000000000000000 ) ) ;
#334 = AXIS2_PLACEMENT_3D ( 'NONE', #341, #85, #281 ) ;
#335 = EDGE_LOOP ( 'NONE', ( #322, #70 ) ) ;
#336 = UNCERTAINTY_MEASURE_WITH_UNIT (LENGTH_MEASURE( 1.000000000000000100E-005 ), #57, 'distance_accuracy_value', 'NONE');
#337 = ORIENTED_EDGE ( 'NONE', *, *, #153, .T. ) ;
#338 = ORIENTED_EDGE ( 'NONE', *, *, #205, .F. ) ;
#339 = ORIENTED_EDGE ( 'NONE', *, *, #15, .F. ) ;
#340 = DIRECTION ( 'NONE',  ( -1.000000000000000000, -0.0000000000000000000, -0.0000000000000000000 ) ) ;
#341 = CARTESIAN_POINT ( 'NONE',  ( 4.500000000000000900, 4.500000000000000000, 3.000000000000000000 ) ) ;
#342 = CLOSED_SHELL ( 'NONE', ( #224, #218, #216, #248, #242, #209, #220, #300, #231, #226 ) ) ;
ENDSEC;
END-ISO-10303-21;
