ISO-10303-21;
HEADER;
FILE_DESCRIPTION (( 'STEP AP214' ),
    '1' );
FILE_NAME ('096p0191604m6.STEP',
    '2014-08-18T12:33:58',
    ( '' ),
    ( '' ),
    'SwSTEP 2.0',
    'SolidWorks 2014',
    '' );
FILE_SCHEMA (( 'AUTOMOTIVE_DESIGN' ));
ENDSEC;

DATA;
#1 = LINE ( 'NONE', #112, #10 ) ;
#2 = UNCERTAINTY_MEASURE_WITH_UNIT (LENGTH_MEASURE( 1.000000000000000100E-005 ), #21, 'distance_accuracy_value', 'NONE');
#3 = ADVANCED_FACE ( 'NONE', ( #79 ), #23, .F. ) ;
#4 = SURFACE_SIDE_STYLE ('',( #37 ) ) ;
#5 =( NAMED_UNIT ( * ) PLANE_ANGLE_UNIT ( ) SI_UNIT ( $, .RADIAN. ) );
#6 = ADVANCED_FACE ( 'NONE', ( #70 ), #247, .F. ) ;
#7 = LINE ( 'NONE', #98, #155 ) ;
#8 = CARTESIAN_POINT ( 'NONE',  ( 0.0000000000000000000, 0.0000000000000000000, 0.0000000000000000000 ) ) ;
#9 = CARTESIAN_POINT ( 'NONE',  ( 16.00000000000000000, 19.00000000000000000, 0.0000000000000000000 ) ) ;
#10 = VECTOR ( 'NONE', #106, 1000.000000000000000 ) ;
#11 = DIRECTION ( 'NONE',  ( -0.0000000000000000000, -0.0000000000000000000, -1.000000000000000000 ) ) ;
#12 = UNCERTAINTY_MEASURE_WITH_UNIT (LENGTH_MEASURE( 1.000000000000000100E-005 ), #59, 'distance_accuracy_value', 'NONE');
#13 = ORIENTED_EDGE ( 'NONE', *, *, #176, .F. ) ;
#14 = DIRECTION ( 'NONE',  ( -1.000000000000000000, -1.224606353822377300E-016, 0.0000000000000000000 ) ) ;
#15 = COLOUR_RGB ( '',0.5294117647058823600, 0.5490196078431373000, 0.5490196078431373000 ) ;
#16 = LINE ( 'NONE', #54, #110 ) ;
#17 = CARTESIAN_POINT ( 'NONE',  ( 10.50000000000000000, 9.500000000000000000, 4.000000000000000000 ) ) ;
#18 = FACE_BOUND ( 'NONE', #188, .T. ) ;
#19 = ORIENTED_EDGE ( 'NONE', *, *, #240, .T. ) ;
#20 = CARTESIAN_POINT ( 'NONE',  ( 16.00000000000000000, 1.959370166115803600E-015, 0.0000000000000000000 ) ) ;
#21 =( LENGTH_UNIT ( ) NAMED_UNIT ( * ) SI_UNIT ( .MILLI., .METRE. ) );
#22 = DIRECTION ( 'NONE',  ( -1.224606353822377300E-016, 1.000000000000000000, 0.0000000000000000000 ) ) ;
#23 = CYLINDRICAL_SURFACE ( 'NONE', #123, 2.500000000000000400 ) ;
#24 = ORIENTED_EDGE ( 'NONE', *, *, #209, .T. ) ;
#25 = VECTOR ( 'NONE', #158, 1000.000000000000000 ) ;
#26 = UNCERTAINTY_MEASURE_WITH_UNIT (LENGTH_MEASURE( 1.000000000000000100E-005 ), #211, 'distance_accuracy_value', 'NONE');
#27 = ORIENTED_EDGE ( 'NONE', *, *, #215, .F. ) ;
#28 = PRESENTATION_STYLE_ASSIGNMENT (( #267 ) ) ;
#29 = EDGE_LOOP ( 'NONE', ( #119, #38, #24, #249 ) ) ;
#30 = COLOUR_RGB ( '',0.5294117647058823600, 0.5490196078431373000, 0.5490196078431373000 ) ;
#31 = DIRECTION ( 'NONE',  ( -1.000000000000000000, 0.0000000000000000000, -0.0000000000000000000 ) ) ;
#32 = VECTOR ( 'NONE', #173, 1000.000000000000000 ) ;
#33 = MANIFOLD_SOLID_BREP ( 'Basis-Linear austragen', #148 ) ;
#34 = DIRECTION ( 'NONE',  ( 0.0000000000000000000, 0.0000000000000000000, -1.000000000000000000 ) ) ;
#35 = DIRECTION ( 'NONE',  ( -0.0000000000000000000, -0.0000000000000000000, -1.000000000000000000 ) ) ;
#36 = EDGE_LOOP ( 'NONE', ( #276, #99, #19, #62 ) ) ;
#37 = SURFACE_STYLE_FILL_AREA ( #44 ) ;
#38 = ORIENTED_EDGE ( 'NONE', *, *, #176, .T. ) ;
#39 = AXIS2_PLACEMENT_3D ( 'NONE', #122, #121, #120 ) ;
#40 =( GEOMETRIC_REPRESENTATION_CONTEXT ( 3 ) GLOBAL_UNCERTAINTY_ASSIGNED_CONTEXT ( ( #12 ) ) GLOBAL_UNIT_ASSIGNED_CONTEXT ( ( #59, #257, #253 ) ) REPRESENTATION_CONTEXT ( 'NONE', 'WORKASPACE' ) );
#41 = PLANE ( 'NONE',  #177 ) ;
#42 = LINE ( 'NONE', #67, #193 ) ;
#43 = DIRECTION ( 'NONE',  ( -0.0000000000000000000, -1.000000000000000000, -0.0000000000000000000 ) ) ;
#44 = FILL_AREA_STYLE ('',( #275 ) ) ;
#45 = VERTEX_POINT ( 'NONE', #161 ) ;
#46 = ORIENTED_EDGE ( 'NONE', *, *, #234, .F. ) ;
#47 = DIRECTION ( 'NONE',  ( -1.000000000000000000, 0.0000000000000000000, 0.0000000000000000000 ) ) ;
#48 = CARTESIAN_POINT ( 'NONE',  ( 8.000000000000000000, 9.500000000000000000, 4.000000000000000000 ) ) ;
#49 = PLANE ( 'NONE',  #274 ) ;
#50 = CARTESIAN_POINT ( 'NONE',  ( 0.0000000000000000000, 0.0000000000000000000, 4.000000000000000000 ) ) ;
#51 = FACE_OUTER_BOUND ( 'NONE', #157, .T. ) ;
#52 = MECHANICAL_DESIGN_GEOMETRIC_PRESENTATION_REPRESENTATION (  '', ( #137 ), #40 ) ;
#53 = VERTEX_POINT ( 'NONE', #246 ) ;
#54 = CARTESIAN_POINT ( 'NONE',  ( 0.0000000000000000000, 0.0000000000000000000, 4.000000000000000000 ) ) ;
#55 = DIRECTION ( 'NONE',  ( -1.000000000000000000, -0.0000000000000000000, -0.0000000000000000000 ) ) ;
#56 = CARTESIAN_POINT ( 'NONE',  ( 0.0000000000000000000, 0.0000000000000000000, 0.0000000000000000000 ) ) ;
#57 = CARTESIAN_POINT ( 'NONE',  ( 0.0000000000000000000, 19.00000000000000000, 4.000000000000000000 ) ) ;
#58 = ADVANCED_BREP_SHAPE_REPRESENTATION ( '096p0191604m6', ( #33, #80 ), #144 ) ;
#59 =( LENGTH_UNIT ( ) NAMED_UNIT ( * ) SI_UNIT ( .MILLI., .METRE. ) );
#60 = APPLICATION_CONTEXT ( 'automotive_design' ) ;
#61 = CARTESIAN_POINT ( 'NONE',  ( 16.00000000000000000, 1.959370166115803600E-015, 4.000000000000000000 ) ) ;
#62 = ORIENTED_EDGE ( 'NONE', *, *, #204, .F. ) ;
#63 = SURFACE_STYLE_FILL_AREA ( #152 ) ;
#64 = DIRECTION ( 'NONE',  ( 0.0000000000000000000, 1.000000000000000000, 0.0000000000000000000 ) ) ;
#65 = DIRECTION ( 'NONE',  ( -0.0000000000000000000, -0.0000000000000000000, -1.000000000000000000 ) ) ;
#66 = LINE ( 'NONE', #97, #172 ) ;
#67 = CARTESIAN_POINT ( 'NONE',  ( 16.00000000000000000, 1.959370166115803600E-015, 0.0000000000000000000 ) ) ;
#68 = EDGE_LOOP ( 'NONE', ( #203, #46, #268, #216 ) ) ;
#69 = DIRECTION ( 'NONE',  ( -0.0000000000000000000, -0.0000000000000000000, -1.000000000000000000 ) ) ;
#70 = FACE_OUTER_BOUND ( 'NONE', #109, .T. ) ;
#71 = PRESENTATION_LAYER_ASSIGNMENT (  '', '', ( #137 ) ) ;
#72 = CARTESIAN_POINT ( 'NONE',  ( 0.0000000000000000000, 19.00000000000000000, 4.000000000000000000 ) ) ;
#73 = ORIENTED_EDGE ( 'NONE', *, *, #240, .F. ) ;
#74 = DIRECTION ( 'NONE',  ( -0.0000000000000000000, -0.0000000000000000000, -1.000000000000000000 ) ) ;
#75 = CYLINDRICAL_SURFACE ( 'NONE', #199, 2.500000000000000400 ) ;
#76 = EDGE_LOOP ( 'NONE', ( #245, #174, #115, #272 ) ) ;
#77 = CARTESIAN_POINT ( 'NONE',  ( 0.0000000000000000000, 19.00000000000000000, 0.0000000000000000000 ) ) ;
#78 = CARTESIAN_POINT ( 'NONE',  ( 5.500000000000000000, 9.500000000000000000, 4.000000000000000000 ) ) ;
#79 = FACE_OUTER_BOUND ( 'NONE', #36, .T. ) ;
#80 = AXIS2_PLACEMENT_3D ( 'NONE', #8, #171, #244 ) ;
#81 = ORIENTED_EDGE ( 'NONE', *, *, #258, .F. ) ;
#82 = ADVANCED_FACE ( 'NONE', ( #51 ), #49, .F. ) ;
#83 = AXIS2_PLACEMENT_3D ( 'NONE', #179, #143, #139 ) ;
#84 = FACE_OUTER_BOUND ( 'NONE', #68, .T. ) ;
#85 = ORIENTED_EDGE ( 'NONE', *, *, #170, .T. ) ;
#86 = CARTESIAN_POINT ( 'NONE',  ( 0.0000000000000000000, 19.00000000000000000, 4.000000000000000000 ) ) ;
#87 = AXIS2_PLACEMENT_3D ( 'NONE', #50, #22, #14 ) ;
#88 = VERTEX_POINT ( 'NONE', #9 ) ;
#89 = DIRECTION ( 'NONE',  ( -0.0000000000000000000, -0.0000000000000000000, -1.000000000000000000 ) ) ;
#90 = ORIENTED_EDGE ( 'NONE', *, *, #234, .T. ) ;
#91 =( GEOMETRIC_REPRESENTATION_CONTEXT ( 3 ) GLOBAL_UNCERTAINTY_ASSIGNED_CONTEXT ( ( #26 ) ) GLOBAL_UNIT_ASSIGNED_CONTEXT ( ( #211, #194, #270 ) ) REPRESENTATION_CONTEXT ( 'NONE', 'WORKASPACE' ) );
#92 = DIRECTION ( 'NONE',  ( -1.000000000000000000, -0.0000000000000000000, -0.0000000000000000000 ) ) ;
#93 = LINE ( 'NONE', #114, #104 ) ;
#94 = CARTESIAN_POINT ( 'NONE',  ( 5.500000000000000000, 9.500000000000000000, 4.000000000000000000 ) ) ;
#95 = FACE_OUTER_BOUND ( 'NONE', #76, .T. ) ;
#96 = CIRCLE ( 'NONE', #238, 2.500000000000000400 ) ;
#97 = CARTESIAN_POINT ( 'NONE',  ( 16.00000000000000000, 19.00000000000000000, 4.000000000000000000 ) ) ;
#98 = CARTESIAN_POINT ( 'NONE',  ( 0.0000000000000000000, 19.00000000000000000, 0.0000000000000000000 ) ) ;
#99 = ORIENTED_EDGE ( 'NONE', *, *, #180, .T. ) ;
#100 = ORIENTED_EDGE ( 'NONE', *, *, #262, .T. ) ;
#101 = CARTESIAN_POINT ( 'NONE',  ( 0.0000000000000000000, 19.00000000000000000, 0.0000000000000000000 ) ) ;
#102 = ORIENTED_EDGE ( 'NONE', *, *, #202, .T. ) ;
#103 = FACE_BOUND ( 'NONE', #250, .T. ) ;
#104 = VECTOR ( 'NONE', #130, 1000.000000000000000 ) ;
#105 = ADVANCED_FACE ( 'NONE', ( #206, #18 ), #223, .F. ) ;
#106 = DIRECTION ( 'NONE',  ( -0.0000000000000000000, -0.0000000000000000000, -1.000000000000000000 ) ) ;
#107 = CARTESIAN_POINT ( 'NONE',  ( 10.50000000000000000, 9.500000000000000000, 4.000000000000000000 ) ) ;
#108 = VERTEX_POINT ( 'NONE', #227 ) ;
#109 = EDGE_LOOP ( 'NONE', ( #102, #129, #13, #156 ) ) ;
#110 = VECTOR ( 'NONE', #43, 1000.000000000000000 ) ;
#111 = LINE ( 'NONE', #136, #273 ) ;
#112 = CARTESIAN_POINT ( 'NONE',  ( 0.0000000000000000000, 0.0000000000000000000, 4.000000000000000000 ) ) ;
#113 = PRODUCT_DEFINITION_FORMATION_WITH_SPECIFIED_SOURCE ( 'ANY', '', #266, .NOT_KNOWN. ) ;
#114 = CARTESIAN_POINT ( 'NONE',  ( 16.00000000000000000, 1.959370166115803600E-015, 4.000000000000000000 ) ) ;
#115 = ORIENTED_EDGE ( 'NONE', *, *, #243, .F. ) ;
#116 = VECTOR ( 'NONE', #55, 1000.000000000000000 ) ;
#117 = DIRECTION ( 'NONE',  ( 0.0000000000000000000, -0.0000000000000000000, -1.000000000000000000 ) ) ;
#118 = DIRECTION ( 'NONE',  ( 0.0000000000000000000, -1.000000000000000000, 0.0000000000000000000 ) ) ;
#119 = ORIENTED_EDGE ( 'NONE', *, *, #258, .T. ) ;
#120 = DIRECTION ( 'NONE',  ( 1.000000000000000000, 0.0000000000000000000, 0.0000000000000000000 ) ) ;
#121 = DIRECTION ( 'NONE',  ( 0.0000000000000000000, 0.0000000000000000000, 1.000000000000000000 ) ) ;
#122 = CARTESIAN_POINT ( 'NONE',  ( 8.000000000000000000, 9.500000000000000000, 0.0000000000000000000 ) ) ;
#123 = AXIS2_PLACEMENT_3D ( 'NONE', #48, #35, #47 ) ;
#124 = CARTESIAN_POINT ( 'NONE',  ( 5.500000000000000000, 9.500000000000000000, 0.0000000000000000000 ) ) ;
#125 = CIRCLE ( 'NONE', #232, 2.500000000000000400 ) ;
#126 = CARTESIAN_POINT ( 'NONE',  ( 0.0000000000000000000, 19.00000000000000000, 4.000000000000000000 ) ) ;
#127 = AXIS2_PLACEMENT_3D ( 'NONE', #126, #118, #117 ) ;
#128 = ORIENTED_EDGE ( 'NONE', *, *, #226, .T. ) ;
#129 = ORIENTED_EDGE ( 'NONE', *, *, #252, .F. ) ;
#130 = DIRECTION ( 'NONE',  ( 0.0000000000000000000, 1.000000000000000000, 0.0000000000000000000 ) ) ;
#131 = LINE ( 'NONE', #175, #32 ) ;
#132 = AXIS2_PLACEMENT_3D ( 'NONE', #230, #220, #218 ) ;
#133 = ORIENTED_EDGE ( 'NONE', *, *, #204, .T. ) ;
#134 = PLANE ( 'NONE',  #127 ) ;
#135 = VERTEX_POINT ( 'NONE', #210 ) ;
#136 = CARTESIAN_POINT ( 'NONE',  ( 0.0000000000000000000, 0.0000000000000000000, 0.0000000000000000000 ) ) ;
#137 = STYLED_ITEM ( 'NONE', ( #28 ), #33 ) ;
#138 = ORIENTED_EDGE ( 'NONE', *, *, #241, .T. ) ;
#139 = DIRECTION ( 'NONE',  ( 0.0000000000000000000, 0.0000000000000000000, 1.000000000000000000 ) ) ;
#140 = ORIENTED_EDGE ( 'NONE', *, *, #170, .F. ) ;
#141 = VERTEX_POINT ( 'NONE', #242 ) ;
#142 = AXIS2_PLACEMENT_3D ( 'NONE', #185, #183, #182 ) ;
#143 = DIRECTION ( 'NONE',  ( -1.000000000000000000, 0.0000000000000000000, 0.0000000000000000000 ) ) ;
#144 =( GEOMETRIC_REPRESENTATION_CONTEXT ( 3 ) GLOBAL_UNCERTAINTY_ASSIGNED_CONTEXT ( ( #2 ) ) GLOBAL_UNIT_ASSIGNED_CONTEXT ( ( #21, #5, #190 ) ) REPRESENTATION_CONTEXT ( 'NONE', 'WORKASPACE' ) );
#145 = PRODUCT_DEFINITION_CONTEXT ( 'detailed design', #60, 'design' ) ;
#146 = PLANE ( 'NONE',  #83 ) ;
#147 = DIRECTION ( 'NONE',  ( 1.000000000000000000, 0.0000000000000000000, 0.0000000000000000000 ) ) ;
#148 = CLOSED_SHELL ( 'NONE', ( #167, #105, #260, #82, #6, #192, #207, #3 ) ) ;
#149 = DIRECTION ( 'NONE',  ( 0.0000000000000000000, 0.0000000000000000000, 1.000000000000000000 ) ) ;
#150 = SURFACE_SIDE_STYLE ('',( #63 ) ) ;
#151 = CARTESIAN_POINT ( 'NONE',  ( 8.000000000000000000, 9.500000000000000000, 4.000000000000000000 ) ) ;
#152 = FILL_AREA_STYLE ('',( #154 ) ) ;
#153 = APPLICATION_CONTEXT ( 'automotive_design' ) ;
#154 = FILL_AREA_STYLE_COLOUR ( '', #30 ) ;
#155 = VECTOR ( 'NONE', #92, 1000.000000000000000 ) ;
#156 = ORIENTED_EDGE ( 'NONE', *, *, #215, .T. ) ;
#157 = EDGE_LOOP ( 'NONE', ( #208, #27, #81, #138 ) ) ;
#158 = DIRECTION ( 'NONE',  ( -0.0000000000000000000, -1.000000000000000000, -0.0000000000000000000 ) ) ;
#159 = EDGE_CURVE ( 'NONE', #213, #45, #195, .T. ) ;
#160 = FACE_OUTER_BOUND ( 'NONE', #237, .T. ) ;
#161 = CARTESIAN_POINT ( 'NONE',  ( 10.50000000000000000, 9.500000000000000000, 0.0000000000000000000 ) ) ;
#162 = DIRECTION ( 'NONE',  ( 1.000000000000000000, 1.224606353822377300E-016, 0.0000000000000000000 ) ) ;
#163 = LINE ( 'NONE', #72, #212 ) ;
#164 = PRODUCT_CONTEXT ( 'NONE', #153, 'mechanical' ) ;
#165 = DIRECTION ( 'NONE',  ( 1.000000000000000000, 0.0000000000000000000, 0.0000000000000000000 ) ) ;
#166 = LINE ( 'NONE', #57, #116 ) ;
#167 = ADVANCED_FACE ( 'NONE', ( #254 ), #75, .F. ) ;
#168 = DIRECTION ( 'NONE',  ( 0.0000000000000000000, 0.0000000000000000000, 1.000000000000000000 ) ) ;
#169 = CARTESIAN_POINT ( 'NONE',  ( 8.000000000000000000, 9.500000000000000000, 4.000000000000000000 ) ) ;
#170 = EDGE_CURVE ( 'NONE', #228, #214, #96, .T. ) ;
#171 = DIRECTION ( 'NONE',  ( 0.0000000000000000000, 0.0000000000000000000, 1.000000000000000000 ) ) ;
#172 = VECTOR ( 'NONE', #89, 1000.000000000000000 ) ;
#173 = DIRECTION ( 'NONE',  ( 1.000000000000000000, 1.224606353822377300E-016, 0.0000000000000000000 ) ) ;
#174 = ORIENTED_EDGE ( 'NONE', *, *, #226, .F. ) ;
#175 = CARTESIAN_POINT ( 'NONE',  ( 0.0000000000000000000, 0.0000000000000000000, 4.000000000000000000 ) ) ;
#176 = EDGE_CURVE ( 'NONE', #141, #53, #131, .T. ) ;
#177 = AXIS2_PLACEMENT_3D ( 'NONE', #77, #34, #31 ) ;
#178 = SURFACE_STYLE_USAGE ( .BOTH. , #150 ) ;
#179 = CARTESIAN_POINT ( 'NONE',  ( 16.00000000000000000, 1.959370166115803600E-015, 4.000000000000000000 ) ) ;
#180 = EDGE_CURVE ( 'NONE', #214, #228, #125, .T. ) ;
#181 = ORIENTED_EDGE ( 'NONE', *, *, #159, .T. ) ;
#182 = DIRECTION ( 'NONE',  ( 1.000000000000000000, 0.0000000000000000000, 0.0000000000000000000 ) ) ;
#183 = DIRECTION ( 'NONE',  ( 0.0000000000000000000, 0.0000000000000000000, 1.000000000000000000 ) ) ;
#184 = PRODUCT_RELATED_PRODUCT_CATEGORY ( 'part', '', ( #266 ) ) ;
#185 = CARTESIAN_POINT ( 'NONE',  ( 8.000000000000000000, 9.500000000000000000, 0.0000000000000000000 ) ) ;
#186 = DIRECTION ( 'NONE',  ( -1.000000000000000000, 0.0000000000000000000, 0.0000000000000000000 ) ) ;
#187 = EDGE_CURVE ( 'NONE', #221, #135, #263, .T. ) ;
#188 = EDGE_LOOP ( 'NONE', ( #140, #191 ) ) ;
#189 = LINE ( 'NONE', #17, #239 ) ;
#190 =( NAMED_UNIT ( * ) SI_UNIT ( $, .STERADIAN. ) SOLID_ANGLE_UNIT ( ) );
#191 = ORIENTED_EDGE ( 'NONE', *, *, #180, .F. ) ;
#192 = ADVANCED_FACE ( 'NONE', ( #84 ), #146, .F. ) ;
#193 = VECTOR ( 'NONE', #64, 1000.000000000000000 ) ;
#194 =( NAMED_UNIT ( * ) PLANE_ANGLE_UNIT ( ) SI_UNIT ( $, .RADIAN. ) );
#195 = CIRCLE ( 'NONE', #142, 2.500000000000000400 ) ;
#196 = CARTESIAN_POINT ( 'NONE',  ( 8.000000000000000000, 9.500000000000000000, 4.000000000000000000 ) ) ;
#197 = ORIENTED_EDGE ( 'NONE', *, *, #241, .F. ) ;
#198 = PRODUCT_DEFINITION_SHAPE ( 'NONE', 'NONE',  #217 ) ;
#199 = AXIS2_PLACEMENT_3D ( 'NONE', #196, #201, #186 ) ;
#200 = LINE ( 'NONE', #78, #236 ) ;
#201 = DIRECTION ( 'NONE',  ( -0.0000000000000000000, -0.0000000000000000000, -1.000000000000000000 ) ) ;
#202 = EDGE_CURVE ( 'NONE', #135, #269, #111, .T. ) ;
#203 = ORIENTED_EDGE ( 'NONE', *, *, #243, .T. ) ;
#204 = EDGE_CURVE ( 'NONE', #45, #213, #271, .T. ) ;
#205 = VECTOR ( 'NONE', #65, 1000.000000000000000 ) ;
#206 = FACE_OUTER_BOUND ( 'NONE', #29, .T. ) ;
#207 = ADVANCED_FACE ( 'NONE', ( #160 ), #134, .F. ) ;
#208 = ORIENTED_EDGE ( 'NONE', *, *, #187, .T. ) ;
#209 = EDGE_CURVE ( 'NONE', #53, #108, #93, .T. ) ;
#210 = CARTESIAN_POINT ( 'NONE',  ( 0.0000000000000000000, 0.0000000000000000000, 0.0000000000000000000 ) ) ;
#211 =( LENGTH_UNIT ( ) NAMED_UNIT ( * ) SI_UNIT ( .MILLI., .METRE. ) );
#212 = VECTOR ( 'NONE', #69, 1000.000000000000000 ) ;
#213 = VERTEX_POINT ( 'NONE', #124 ) ;
#214 = VERTEX_POINT ( 'NONE', #107 ) ;
#215 = EDGE_CURVE ( 'NONE', #141, #135, #1, .T. ) ;
#216 = ORIENTED_EDGE ( 'NONE', *, *, #252, .T. ) ;
#217 = PRODUCT_DEFINITION ( 'UNKNOWN', '', #113, #145 ) ;
#218 = DIRECTION ( 'NONE',  ( -1.000000000000000000, 0.0000000000000000000, -0.0000000000000000000 ) ) ;
#219 = SHAPE_DEFINITION_REPRESENTATION ( #198, #58 ) ;
#220 = DIRECTION ( 'NONE',  ( 0.0000000000000000000, 0.0000000000000000000, -1.000000000000000000 ) ) ;
#221 = VERTEX_POINT ( 'NONE', #101 ) ;
#222 = STYLED_ITEM ( 'NONE', ( #256 ), #58 ) ;
#223 = PLANE ( 'NONE',  #132 ) ;
#224 = PRESENTATION_LAYER_ASSIGNMENT (  '', '', ( #222 ) ) ;
#225 = MECHANICAL_DESIGN_GEOMETRIC_PRESENTATION_REPRESENTATION (  '', ( #222 ), #91 ) ;
#226 = EDGE_CURVE ( 'NONE', #88, #221, #7, .T. ) ;
#227 = CARTESIAN_POINT ( 'NONE',  ( 16.00000000000000000, 19.00000000000000000, 4.000000000000000000 ) ) ;
#228 = VERTEX_POINT ( 'NONE', #94 ) ;
#229 = VERTEX_POINT ( 'NONE', #86 ) ;
#230 = CARTESIAN_POINT ( 'NONE',  ( 0.0000000000000000000, 19.00000000000000000, 4.000000000000000000 ) ) ;
#231 = DIRECTION ( 'NONE',  ( 0.0000000000000000000, 0.0000000000000000000, -1.000000000000000000 ) ) ;
#232 = AXIS2_PLACEMENT_3D ( 'NONE', #151, #149, #147 ) ;
#233 = DIRECTION ( 'NONE',  ( 1.000000000000000000, 0.0000000000000000000, 0.0000000000000000000 ) ) ;
#234 = EDGE_CURVE ( 'NONE', #108, #88, #66, .T. ) ;
#235 = APPLICATION_PROTOCOL_DEFINITION ( 'draft international standard', 'automotive_design', 1998, #60 ) ;
#236 = VECTOR ( 'NONE', #74, 1000.000000000000000 ) ;
#237 = EDGE_LOOP ( 'NONE', ( #128, #197, #259, #90 ) ) ;
#238 = AXIS2_PLACEMENT_3D ( 'NONE', #169, #168, #165 ) ;
#239 = VECTOR ( 'NONE', #11, 1000.000000000000000 ) ;
#240 = EDGE_CURVE ( 'NONE', #228, #213, #200, .T. ) ;
#241 = EDGE_CURVE ( 'NONE', #229, #221, #163, .T. ) ;
#242 = CARTESIAN_POINT ( 'NONE',  ( 0.0000000000000000000, 0.0000000000000000000, 4.000000000000000000 ) ) ;
#243 = EDGE_CURVE ( 'NONE', #269, #88, #42, .T. ) ;
#244 = DIRECTION ( 'NONE',  ( 1.000000000000000000, 0.0000000000000000000, 0.0000000000000000000 ) ) ;
#245 = ORIENTED_EDGE ( 'NONE', *, *, #187, .F. ) ;
#246 = CARTESIAN_POINT ( 'NONE',  ( 16.00000000000000000, 1.959370166115803600E-015, 4.000000000000000000 ) ) ;
#247 = PLANE ( 'NONE',  #87 ) ;
#248 = CARTESIAN_POINT ( 'NONE',  ( 0.0000000000000000000, 0.0000000000000000000, 4.000000000000000000 ) ) ;
#249 = ORIENTED_EDGE ( 'NONE', *, *, #255, .T. ) ;
#250 = EDGE_LOOP ( 'NONE', ( #181, #133 ) ) ;
#251 = ORIENTED_EDGE ( 'NONE', *, *, #159, .F. ) ;
#252 = EDGE_CURVE ( 'NONE', #53, #269, #261, .T. ) ;
#253 =( NAMED_UNIT ( * ) SI_UNIT ( $, .STERADIAN. ) SOLID_ANGLE_UNIT ( ) );
#254 = FACE_OUTER_BOUND ( 'NONE', #265, .T. ) ;
#255 = EDGE_CURVE ( 'NONE', #108, #229, #166, .T. ) ;
#256 = PRESENTATION_STYLE_ASSIGNMENT (( #178 ) ) ;
#257 =( NAMED_UNIT ( * ) PLANE_ANGLE_UNIT ( ) SI_UNIT ( $, .RADIAN. ) );
#258 = EDGE_CURVE ( 'NONE', #229, #141, #16, .T. ) ;
#259 = ORIENTED_EDGE ( 'NONE', *, *, #255, .F. ) ;
#260 = ADVANCED_FACE ( 'NONE', ( #95, #103 ), #41, .T. ) ;
#261 = LINE ( 'NONE', #61, #205 ) ;
#262 = EDGE_CURVE ( 'NONE', #214, #45, #189, .T. ) ;
#263 = LINE ( 'NONE', #56, #25 ) ;
#264 = APPLICATION_PROTOCOL_DEFINITION ( 'draft international standard', 'automotive_design', 1998, #153 ) ;
#265 = EDGE_LOOP ( 'NONE', ( #85, #100, #251, #73 ) ) ;
#266 = PRODUCT ( '096p0191604m6', '096p0191604m6', '', ( #164 ) ) ;
#267 = SURFACE_STYLE_USAGE ( .BOTH. , #4 ) ;
#268 = ORIENTED_EDGE ( 'NONE', *, *, #209, .F. ) ;
#269 = VERTEX_POINT ( 'NONE', #20 ) ;
#270 =( NAMED_UNIT ( * ) SI_UNIT ( $, .STERADIAN. ) SOLID_ANGLE_UNIT ( ) );
#271 = CIRCLE ( 'NONE', #39, 2.500000000000000400 ) ;
#272 = ORIENTED_EDGE ( 'NONE', *, *, #202, .F. ) ;
#273 = VECTOR ( 'NONE', #162, 1000.000000000000000 ) ;
#274 = AXIS2_PLACEMENT_3D ( 'NONE', #248, #233, #231 ) ;
#275 = FILL_AREA_STYLE_COLOUR ( '', #15 ) ;
#276 = ORIENTED_EDGE ( 'NONE', *, *, #262, .F. ) ;
ENDSEC;
END-ISO-10303-21;
