ISO-10303-21;
HEADER;
FILE_DESCRIPTION (( 'STEP AP214' ),
    '1' );
FILE_NAME ('096P0191604M8.STEP',
    '2014-08-18T12:35:48',
    ( '' ),
    ( '' ),
    'SwSTEP 2.0',
    'SolidWorks 2014',
    '' );
FILE_SCHEMA (( 'AUTOMOTIVE_DESIGN' ));
ENDSEC;

DATA;
#1 = ORIENTED_EDGE ( 'NONE', *, *, #150, .F. ) ;
#2 = PRESENTATION_STYLE_ASSIGNMENT (( #227 ) ) ;
#3 = ORIENTED_EDGE ( 'NONE', *, *, #399, .F. ) ;
#4 = PRODUCT_DEFINITION_CONTEXT ( 'detailed design', #125, 'design' ) ;
#5 = ADVANCED_BREP_SHAPE_REPRESENTATION ( '096P0191604M8', ( #8, #293 ), #370 ) ;
#6 = EDGE_CURVE ( 'NONE', #319, #147, #177, .T. ) ;
#7 = VECTOR ( 'NONE', #296, 1000.000000000000000 ) ;
#8 = MANIFOLD_SOLID_BREP ( 'M8 Gewindebohrung1', #156 ) ;
#9 = CARTESIAN_POINT ( 'NONE',  ( 8.000000000000003600, 9.500000000000001800, 2.000000000000000000 ) ) ;
#10 = ADVANCED_FACE ( 'NONE', ( #312 ), #86, .F. ) ;
#11 = VECTOR ( 'NONE', #133, 999.9999999999998900 ) ;
#12 = DIRECTION ( 'NONE',  ( 1.000000000000000000, 0.0000000000000000000, 0.0000000000000000000 ) ) ;
#13 = CARTESIAN_POINT ( 'NONE',  ( -3.399999999999999500, 4.163799117101000100E-016, 2.000000000000000000 ) ) ;
#14 = STYLED_ITEM ( 'NONE', ( #348 ), #355 ) ;
#15 = ORIENTED_EDGE ( 'NONE', *, *, #240, .F. ) ;
#16 = ORIENTED_EDGE ( 'NONE', *, *, #375, .T. ) ;
#17 = VECTOR ( 'NONE', #284, 1000.000000000000000 ) ;
#18 = COLOUR_RGB ( '',0.8941176470588234600, 0.9137254901960784000, 0.9294117647058823800 ) ;
#19 = ORIENTED_EDGE ( 'NONE', *, *, #399, .T. ) ;
#20 =( NAMED_UNIT ( * ) SI_UNIT ( $, .STERADIAN. ) SOLID_ANGLE_UNIT ( ) );
#21 =( NAMED_UNIT ( * ) PLANE_ANGLE_UNIT ( ) SI_UNIT ( $, .RADIAN. ) );
#22 = VERTEX_POINT ( 'NONE', #82 ) ;
#23 = ORIENTED_EDGE ( 'NONE', *, *, #42, .T. ) ;
#24 = VECTOR ( 'NONE', #40, 1000.000000000000000 ) ;
#25 = DIRECTION ( 'NONE',  ( 1.000000000000000000, 0.0000000000000000000, 0.0000000000000000000 ) ) ;
#26 = LINE ( 'NONE', #354, #172 ) ;
#27 = VECTOR ( 'NONE', #365, 1000.000000000000000 ) ;
#28 = CARTESIAN_POINT ( 'NONE',  ( -7.999999999999996400, -9.500000000000000000, 2.000000000000000000 ) ) ;
#29 = DIRECTION ( 'NONE',  ( -0.7071067811865470200, 0.0000000000000000000, -0.7071067811865480200 ) ) ;
#30 = ORIENTED_EDGE ( 'NONE', *, *, #236, .T. ) ;
#31 = ADVANCED_FACE ( 'NONE', ( #35 ), #369, .F. ) ;
#32 = EDGE_LOOP ( 'NONE', ( #341, #390 ) ) ;
#33 = LINE ( 'NONE', #13, #24 ) ;
#34 = LINE ( 'NONE', #320, #194 ) ;
#35 = FACE_OUTER_BOUND ( 'NONE', #135, .T. ) ;
#36 = AXIS2_PLACEMENT_3D ( 'NONE', #331, #351, #327 ) ;
#37 = ORIENTED_EDGE ( 'NONE', *, *, #47, .T. ) ;
#38 = FILL_AREA_STYLE_COLOUR ( '', #41 ) ;
#39 = ORIENTED_EDGE ( 'NONE', *, *, #267, .T. ) ;
#40 = DIRECTION ( 'NONE',  ( -0.0000000000000000000, -0.0000000000000000000, 1.000000000000000000 ) ) ;
#41 = COLOUR_RGB ( '',0.8941176470588234600, 0.9137254901960784000, 0.9294117647058823800 ) ;
#42 = EDGE_CURVE ( 'NONE', #289, #229, #108, .T. ) ;
#43 = AXIS2_PLACEMENT_3D ( 'NONE', #252, #254, #285 ) ;
#44 = UNCERTAINTY_MEASURE_WITH_UNIT (LENGTH_MEASURE( 1.000000000000000100E-005 ), #380, 'distance_accuracy_value', 'NONE');
#45 = ORIENTED_EDGE ( 'NONE', *, *, #375, .F. ) ;
#46 = AXIS2_PLACEMENT_3D ( 'NONE', #350, #361, #357 ) ;
#47 = EDGE_CURVE ( 'NONE', #22, #290, #291, .T. ) ;
#48 = PRODUCT_CONTEXT ( 'NONE', #154, 'mechanical' ) ;
#49 = ORIENTED_EDGE ( 'NONE', *, *, #42, .F. ) ;
#50 = VECTOR ( 'NONE', #212, 1000.000000000000000 ) ;
#51 = CARTESIAN_POINT ( 'NONE',  ( 8.000000000000003600, -9.499999999999998200, 2.000000000000000000 ) ) ;
#52 = FACE_OUTER_BOUND ( 'NONE', #196, .T. ) ;
#53 = AXIS2_PLACEMENT_3D ( 'NONE', #306, #265, #258 ) ;
#54 = MECHANICAL_DESIGN_GEOMETRIC_PRESENTATION_REPRESENTATION (  '', ( #228 ), #386 ) ;
#55 = CARTESIAN_POINT ( 'NONE',  ( 0.0000000000000000000, 0.0000000000000000000, 2.000000000000000000 ) ) ;
#56 = ORIENTED_EDGE ( 'NONE', *, *, #397, .T. ) ;
#57 = ADVANCED_FACE ( 'NONE', ( #275 ), #60, .F. ) ;
#58 = ORIENTED_EDGE ( 'NONE', *, *, #6, .T. ) ;
#59 = CARTESIAN_POINT ( 'NONE',  ( 0.0000000000000000000, 0.0000000000000000000, -1.374999999999999600 ) ) ;
#60 = PLANE ( 'NONE',  #207 ) ;
#61 = ORIENTED_EDGE ( 'NONE', *, *, #397, .F. ) ;
#62 = MECHANICAL_DESIGN_GEOMETRIC_PRESENTATION_REPRESENTATION (  '', ( #14 ), #270 ) ;
#63 = ORIENTED_EDGE ( 'NONE', *, *, #240, .T. ) ;
#64 = LINE ( 'NONE', #253, #153 ) ;
#65 = VECTOR ( 'NONE', #190, 1000.000000000000000 ) ;
#66 = ORIENTED_EDGE ( 'NONE', *, *, #345, .T. ) ;
#67 = VERTEX_POINT ( 'NONE', #310 ) ;
#68 = CARTESIAN_POINT ( 'NONE',  ( 0.0000000000000000000, 0.0000000000000000000, 1.375000000000000400 ) ) ;
#69 = EDGE_CURVE ( 'NONE', #274, #134, #33, .T. ) ;
#70 = ORIENTED_EDGE ( 'NONE', *, *, #391, .F. ) ;
#71 = CARTESIAN_POINT ( 'NONE',  ( -7.999999999999996400, 9.499999999999998200, 2.000000000000000000 ) ) ;
#72 = LINE ( 'NONE', #97, #50 ) ;
#73 = EDGE_LOOP ( 'NONE', ( #300, #1, #338, #192 ) ) ;
#74 = CARTESIAN_POINT ( 'NONE',  ( 0.0000000000000000000, 0.0000000000000000000, 2.000000000000000000 ) ) ;
#75 = SURFACE_STYLE_FILL_AREA ( #367 ) ;
#76 = DIRECTION ( 'NONE',  ( -1.000000000000000000, -1.084202172485504400E-016, 0.0000000000000000000 ) ) ;
#77 = DIRECTION ( 'NONE',  ( -0.0000000000000000000, -0.0000000000000000000, -1.000000000000000000 ) ) ;
#78 = CONICAL_SURFACE ( 'NONE', #127, 3.399999999999999500, 0.7853981633974476100 ) ;
#79 = AXIS2_PLACEMENT_3D ( 'NONE', #198, #223, #385 ) ;
#80 = DIRECTION ( 'NONE',  ( -0.0000000000000000000, -0.0000000000000000000, 1.000000000000000000 ) ) ;
#81 = ORIENTED_EDGE ( 'NONE', *, *, #393, .T. ) ;
#82 = CARTESIAN_POINT ( 'NONE',  ( 4.025000000000000400, 0.0000000000000000000, 2.000000000000000000 ) ) ;
#83 = CARTESIAN_POINT ( 'NONE',  ( 8.000000000000003600, 9.500000000000001800, -2.000000000000000000 ) ) ;
#84 = ADVANCED_FACE ( 'NONE', ( #359 ), #138, .F. ) ;
#85 = ORIENTED_EDGE ( 'NONE', *, *, #372, .F. ) ;
#86 = CONICAL_SURFACE ( 'NONE', #226, 4.025000000000000400, 0.7853981633974492800 ) ;
#87 = AXIS2_PLACEMENT_3D ( 'NONE', #257, #204, #339 ) ;
#88 = ORIENTED_EDGE ( 'NONE', *, *, #346, .T. ) ;
#89 = VECTOR ( 'NONE', #188, 999.9999999999998900 ) ;
#90 = DIRECTION ( 'NONE',  ( -0.0000000000000000000, -0.0000000000000000000, 1.000000000000000000 ) ) ;
#91 = SURFACE_STYLE_FILL_AREA ( #205 ) ;
#92 = EDGE_LOOP ( 'NONE', ( #16, #159, #356, #61 ) ) ;
#93 = DIRECTION ( 'NONE',  ( 0.0000000000000000000, 0.0000000000000000000, -1.000000000000000000 ) ) ;
#94 = CARTESIAN_POINT ( 'NONE',  ( 8.000000000000003600, -9.499999999999998200, 2.000000000000000000 ) ) ;
#95 = ORIENTED_EDGE ( 'NONE', *, *, #164, .T. ) ;
#96 = ORIENTED_EDGE ( 'NONE', *, *, #143, .T. ) ;
#97 = CARTESIAN_POINT ( 'NONE',  ( 8.000000000000003600, -9.499999999999998200, -2.000000000000000000 ) ) ;
#98 = FACE_OUTER_BOUND ( 'NONE', #106, .T. ) ;
#99 = LINE ( 'NONE', #329, #360 ) ;
#100 = LINE ( 'NONE', #287, #27 ) ;
#101 = AXIS2_PLACEMENT_3D ( 'NONE', #104, #334, #113 ) ;
#102 = UNCERTAINTY_MEASURE_WITH_UNIT (LENGTH_MEASURE( 1.000000000000000100E-005 ), #185, 'distance_accuracy_value', 'NONE');
#103 = AXIS2_PLACEMENT_3D ( 'NONE', #305, #114, #171 ) ;
#104 = CARTESIAN_POINT ( 'NONE',  ( 0.0000000000000000000, 0.0000000000000000000, 2.000000000000000000 ) ) ;
#105 = AXIS2_PLACEMENT_3D ( 'NONE', #202, #302, #311 ) ;
#106 = EDGE_LOOP ( 'NONE', ( #269, #303, #15, #166 ) ) ;
#107 = PRODUCT ( '096P0191604M8', '096P0191604M8', '', ( #48 ) ) ;
#108 = CIRCLE ( 'NONE', #105, 4.025000000000000400 ) ;
#109 = FACE_OUTER_BOUND ( 'NONE', #279, .T. ) ;
#110 = VECTOR ( 'NONE', #29, 1000.000000000000000 ) ;
#111 = CARTESIAN_POINT ( 'NONE',  ( 8.000000000000003600, -9.499999999999998200, 2.000000000000000000 ) ) ;
#112 = PRESENTATION_LAYER_ASSIGNMENT (  '', '', ( #14 ) ) ;
#113 = DIRECTION ( 'NONE',  ( 1.000000000000000000, 0.0000000000000000000, 0.0000000000000000000 ) ) ;
#114 = DIRECTION ( 'NONE',  ( -0.0000000000000000000, -0.0000000000000000000, 1.000000000000000000 ) ) ;
#115 = UNCERTAINTY_MEASURE_WITH_UNIT (LENGTH_MEASURE( 1.000000000000000100E-005 ), #179, 'distance_accuracy_value', 'NONE');
#116 = ORIENTED_EDGE ( 'NONE', *, *, #255, .F. ) ;
#117 = AXIS2_PLACEMENT_3D ( 'NONE', #9, #167, #389 ) ;
#118 = DIRECTION ( 'NONE',  ( 1.000000000000000000, 0.0000000000000000000, 0.0000000000000000000 ) ) ;
#119 = VERTEX_POINT ( 'NONE', #71 ) ;
#120 = ADVANCED_FACE ( 'NONE', ( #98 ), #330, .F. ) ;
#121 = ORIENTED_EDGE ( 'NONE', *, *, #345, .F. ) ;
#122 = VERTEX_POINT ( 'NONE', #379 ) ;
#123 = DIRECTION ( 'NONE',  ( 0.0000000000000000000, 0.0000000000000000000, 1.000000000000000000 ) ) ;
#124 = ORIENTED_EDGE ( 'NONE', *, *, #395, .T. ) ;
#125 = APPLICATION_CONTEXT ( 'automotive_design' ) ;
#126 =( LENGTH_UNIT ( ) NAMED_UNIT ( * ) SI_UNIT ( .MILLI., .METRE. ) );
#127 = AXIS2_PLACEMENT_3D ( 'NONE', #162, #93, #168 ) ;
#128 = DIRECTION ( 'NONE',  ( 1.000000000000000000, 0.0000000000000000000, 0.0000000000000000000 ) ) ;
#129 =( NAMED_UNIT ( * ) PLANE_ANGLE_UNIT ( ) SI_UNIT ( $, .RADIAN. ) );
#130 = FACE_OUTER_BOUND ( 'NONE', #283, .T. ) ;
#131 = LINE ( 'NONE', #282, #206 ) ;
#132 = ORIENTED_EDGE ( 'NONE', *, *, #175, .T. ) ;
#133 = DIRECTION ( 'NONE',  ( 0.7071067811865483500, 0.0000000000000000000, 0.7071067811865468000 ) ) ;
#134 = VERTEX_POINT ( 'NONE', #221 ) ;
#135 = EDGE_LOOP ( 'NONE', ( #45, #233, #165, #323 ) ) ;
#136 = AXIS2_PLACEMENT_3D ( 'NONE', #111, #401, #76 ) ;
#137 = FACE_BOUND ( 'NONE', #178, .T. ) ;
#138 = PLANE ( 'NONE',  #136 ) ;
#139 = CIRCLE ( 'NONE', #402, 4.025000000000000400 ) ;
#140 = APPLICATION_PROTOCOL_DEFINITION ( 'draft international standard', 'automotive_design', 1998, #125 ) ;
#141 = COLOUR_RGB ( '',0.8941176470588234600, 0.9137254901960784000, 0.9294117647058823800 ) ;
#142 = ORIENTED_EDGE ( 'NONE', *, *, #308, .T. ) ;
#143 = EDGE_CURVE ( 'NONE', #134, #290, #262, .T. ) ;
#144 = SURFACE_STYLE_USAGE ( .BOTH. , #152 ) ;
#145 =( NAMED_UNIT ( * ) SI_UNIT ( $, .STERADIAN. ) SOLID_ANGLE_UNIT ( ) );
#146 = ADVANCED_FACE ( 'NONE', ( #181 ), #78, .F. ) ;
#147 = VERTEX_POINT ( 'NONE', #250 ) ;
#148 = DIRECTION ( 'NONE',  ( 1.000000000000000000, 0.0000000000000000000, 0.0000000000000000000 ) ) ;
#149 = FILL_AREA_STYLE ('',( #157 ) ) ;
#150 = EDGE_CURVE ( 'NONE', #314, #274, #193, .T. ) ;
#151 = DIRECTION ( 'NONE',  ( -0.0000000000000000000, -0.0000000000000000000, -1.000000000000000000 ) ) ;
#152 = SURFACE_SIDE_STYLE ('',( #362 ) ) ;
#153 = VECTOR ( 'NONE', #271, 1000.000000000000000 ) ;
#154 = APPLICATION_CONTEXT ( 'automotive_design' ) ;
#155 = PRESENTATION_STYLE_ASSIGNMENT (( #144 ) ) ;
#156 = CLOSED_SHELL ( 'NONE', ( #209, #31, #146, #57, #84, #388, #120, #322, #243, #286, #355, #10 ) ) ;
#157 = FILL_AREA_STYLE_COLOUR ( '', #184 ) ;
#158 = DIRECTION ( 'NONE',  ( 1.000000000000000000, 0.0000000000000000000, 0.0000000000000000000 ) ) ;
#159 = ORIENTED_EDGE ( 'NONE', *, *, #342, .T. ) ;
#160 = ORIENTED_EDGE ( 'NONE', *, *, #6, .F. ) ;
#161 = PLANE ( 'NONE',  #405 ) ;
#162 = CARTESIAN_POINT ( 'NONE',  ( 0.0000000000000000000, 0.0000000000000000000, -1.374999999999999600 ) ) ;
#163 = LINE ( 'NONE', #203, #11 ) ;
#164 = EDGE_CURVE ( 'NONE', #189, #222, #347, .T. ) ;
#165 = ORIENTED_EDGE ( 'NONE', *, *, #349, .T. ) ;
#166 = ORIENTED_EDGE ( 'NONE', *, *, #255, .T. ) ;
#167 = DIRECTION ( 'NONE',  ( 2.168404344971008900E-016, -1.000000000000000000, 0.0000000000000000000 ) ) ;
#168 = DIRECTION ( 'NONE',  ( -1.000000000000000000, 0.0000000000000000000, 0.0000000000000000000 ) ) ;
#169 = AXIS2_PLACEMENT_3D ( 'NONE', #295, #281, #148 ) ;
#170 = FACE_OUTER_BOUND ( 'NONE', #374, .T. ) ;
#171 = DIRECTION ( 'NONE',  ( 1.000000000000000000, 0.0000000000000000000, 0.0000000000000000000 ) ) ;
#172 = VECTOR ( 'NONE', #324, 1000.000000000000000 ) ;
#173 = UNCERTAINTY_MEASURE_WITH_UNIT (LENGTH_MEASURE( 1.000000000000000100E-005 ), #232, 'distance_accuracy_value', 'NONE');
#174 = DIRECTION ( 'NONE',  ( -0.0000000000000000000, -0.0000000000000000000, -1.000000000000000000 ) ) ;
#175 = EDGE_CURVE ( 'NONE', #381, #22, #163, .T. ) ;
#176 = CARTESIAN_POINT ( 'NONE',  ( 0.0000000000000000000, 0.0000000000000000000, 0.0000000000000000000 ) ) ;
#177 = LINE ( 'NONE', #197, #268 ) ;
#178 = EDGE_LOOP ( 'NONE', ( #124, #23 ) ) ;
#179 =( LENGTH_UNIT ( ) NAMED_UNIT ( * ) SI_UNIT ( .MILLI., .METRE. ) );
#180 =( NAMED_UNIT ( * ) PLANE_ANGLE_UNIT ( ) SI_UNIT ( $, .RADIAN. ) );
#181 = FACE_OUTER_BOUND ( 'NONE', #92, .T. ) ;
#182 = FACE_BOUND ( 'NONE', #32, .T. ) ;
#183 = SURFACE_STYLE_FILL_AREA ( #260 ) ;
#184 = COLOUR_RGB ( '',0.8941176470588234600, 0.9137254901960784000, 0.9294117647058823800 ) ;
#185 =( LENGTH_UNIT ( ) NAMED_UNIT ( * ) SI_UNIT ( .MILLI., .METRE. ) );
#186 =( NAMED_UNIT ( * ) PLANE_ANGLE_UNIT ( ) SI_UNIT ( $, .RADIAN. ) );
#187 =( NAMED_UNIT ( * ) PLANE_ANGLE_UNIT ( ) SI_UNIT ( $, .RADIAN. ) );
#188 = DIRECTION ( 'NONE',  ( -0.7071067811865483500, 8.659560562354942700E-017, 0.7071067811865468000 ) ) ;
#189 = VERTEX_POINT ( 'NONE', #51 ) ;
#190 = DIRECTION ( 'NONE',  ( -1.000000000000000000, -2.168404344971008900E-016, 0.0000000000000000000 ) ) ;
#191 = SURFACE_SIDE_STYLE ('',( #75 ) ) ;
#192 = ORIENTED_EDGE ( 'NONE', *, *, #391, .T. ) ;
#193 = CIRCLE ( 'NONE', #103, 3.399999999999999500 ) ;
#194 = VECTOR ( 'NONE', #353, 1000.000000000000000 ) ;
#195 = LINE ( 'NONE', #304, #110 ) ;
#196 = EDGE_LOOP ( 'NONE', ( #39, #116, #387, #95 ) ) ;
#197 = CARTESIAN_POINT ( 'NONE',  ( -7.999999999999996400, -9.500000000000000000, -2.000000000000000000 ) ) ;
#198 = CARTESIAN_POINT ( 'NONE',  ( 0.0000000000000000000, 0.0000000000000000000, 2.000000000000000000 ) ) ;
#199 = AXIS2_PLACEMENT_3D ( 'NONE', #59, #239, #242 ) ;
#200 =( NAMED_UNIT ( * ) SI_UNIT ( $, .STERADIAN. ) SOLID_ANGLE_UNIT ( ) );
#201 = UNCERTAINTY_MEASURE_WITH_UNIT (LENGTH_MEASURE( 1.000000000000000100E-005 ), #126, 'distance_accuracy_value', 'NONE');
#202 = CARTESIAN_POINT ( 'NONE',  ( 0.0000000000000000000, 0.0000000000000000000, -2.000000000000000900 ) ) ;
#203 = CARTESIAN_POINT ( 'NONE',  ( 4.025000000000000400, 0.0000000000000000000, 2.000000000000000000 ) ) ;
#204 = DIRECTION ( 'NONE',  ( 0.0000000000000000000, 0.0000000000000000000, -1.000000000000000000 ) ) ;
#205 = FILL_AREA_STYLE ('',( #301 ) ) ;
#206 = VECTOR ( 'NONE', #174, 1000.000000000000000 ) ;
#207 = AXIS2_PLACEMENT_3D ( 'NONE', #28, #158, #241 ) ;
#208 = CARTESIAN_POINT ( 'NONE',  ( 4.025000000000000400, 4.929203366568097200E-016, -2.000000000000000900 ) ) ;
#209 = ADVANCED_FACE ( 'NONE', ( #170 ), #332, .F. ) ;
#210 = PRESENTATION_LAYER_ASSIGNMENT (  '', '', ( #228 ) ) ;
#211 = SURFACE_SIDE_STYLE ('',( #91 ) ) ;
#212 = DIRECTION ( 'NONE',  ( 0.0000000000000000000, 1.000000000000000000, 0.0000000000000000000 ) ) ;
#213 = SURFACE_SIDE_STYLE ('',( #183 ) ) ;
#214 = VERTEX_POINT ( 'NONE', #337 ) ;
#215 =( NAMED_UNIT ( * ) SI_UNIT ( $, .STERADIAN. ) SOLID_ANGLE_UNIT ( ) );
#216 = VECTOR ( 'NONE', #151, 1000.000000000000000 ) ;
#217 = CYLINDRICAL_SURFACE ( 'NONE', #169, 3.399999999999999500 ) ;
#218 = DIRECTION ( 'NONE',  ( -1.000000000000000000, 0.0000000000000000000, 0.0000000000000000000 ) ) ;
#219 = AXIS2_PLACEMENT_3D ( 'NONE', #74, #90, #12 ) ;
#220 = APPLICATION_PROTOCOL_DEFINITION ( 'draft international standard', 'automotive_design', 1998, #154 ) ;
#221 = CARTESIAN_POINT ( 'NONE',  ( -3.400000000000000400, 4.163799117101001100E-016, 1.375000000000000400 ) ) ;
#222 = VERTEX_POINT ( 'NONE', #315 ) ;
#223 = DIRECTION ( 'NONE',  ( -0.0000000000000000000, -0.0000000000000000000, 1.000000000000000000 ) ) ;
#224 = DIRECTION ( 'NONE',  ( 0.0000000000000000000, 0.0000000000000000000, 1.000000000000000000 ) ) ;
#225 = LINE ( 'NONE', #297, #7 ) ;
#226 = AXIS2_PLACEMENT_3D ( 'NONE', #55, #343, #25 ) ;
#227 = SURFACE_STYLE_USAGE ( .BOTH. , #191 ) ;
#228 = STYLED_ITEM ( 'NONE', ( #277 ), #31 ) ;
#229 = VERTEX_POINT ( 'NONE', #309 ) ;
#230 = EDGE_LOOP ( 'NONE', ( #58, #121, #288, #81 ) ) ;
#231 = PRODUCT_DEFINITION_SHAPE ( 'NONE', 'NONE',  #264 ) ;
#232 =( LENGTH_UNIT ( ) NAMED_UNIT ( * ) SI_UNIT ( .MILLI., .METRE. ) );
#233 = ORIENTED_EDGE ( 'NONE', *, *, #69, .T. ) ;
#234 = FACE_OUTER_BOUND ( 'NONE', #237, .T. ) ;
#235 = CARTESIAN_POINT ( 'NONE',  ( 8.000000000000003600, 9.500000000000001800, 2.000000000000000000 ) ) ;
#236 = EDGE_CURVE ( 'NONE', #67, #189, #225, .T. ) ;
#237 = EDGE_LOOP ( 'NONE', ( #160, #85, #259, #3 ) ) ;
#238 = CARTESIAN_POINT ( 'NONE',  ( 8.000000000000003600, -9.499999999999998200, 2.000000000000000000 ) ) ;
#239 = DIRECTION ( 'NONE',  ( -0.0000000000000000000, -0.0000000000000000000, 1.000000000000000000 ) ) ;
#240 = EDGE_CURVE ( 'NONE', #214, #119, #340, .T. ) ;
#241 = DIRECTION ( 'NONE',  ( 0.0000000000000000000, 0.0000000000000000000, -1.000000000000000000 ) ) ;
#242 = DIRECTION ( 'NONE',  ( 1.000000000000000000, 0.0000000000000000000, 0.0000000000000000000 ) ) ;
#243 = ADVANCED_FACE ( 'NONE', ( #137, #234 ), #266, .F. ) ;
#244 =( NAMED_UNIT ( * ) SI_UNIT ( $, .STERADIAN. ) SOLID_ANGLE_UNIT ( ) );
#245 = ORIENTED_EDGE ( 'NONE', *, *, #349, .F. ) ;
#246 = PRODUCT_RELATED_PRODUCT_CATEGORY ( 'part', '', ( #107 ) ) ;
#247 = CARTESIAN_POINT ( 'NONE',  ( 3.399999999999999900, 0.0000000000000000000, 1.375000000000000400 ) ) ;
#248 = VECTOR ( 'NONE', #77, 1000.000000000000000 ) ;
#249 = CARTESIAN_POINT ( 'NONE',  ( 8.000000000000003600, -9.499999999999998200, -2.000000000000000000 ) ) ;
#250 = CARTESIAN_POINT ( 'NONE',  ( -7.999999999999996400, -9.500000000000000000, -2.000000000000000000 ) ) ;
#251 = EDGE_CURVE ( 'NONE', #189, #214, #64, .T. ) ;
#252 = CARTESIAN_POINT ( 'NONE',  ( 0.0000000000000000000, 0.0000000000000000000, 1.375000000000000400 ) ) ;
#253 = CARTESIAN_POINT ( 'NONE',  ( 8.000000000000003600, -9.499999999999998200, 2.000000000000000000 ) ) ;
#254 = DIRECTION ( 'NONE',  ( -0.0000000000000000000, -0.0000000000000000000, 1.000000000000000000 ) ) ;
#255 = EDGE_CURVE ( 'NONE', #214, #122, #404, .T. ) ;
#256 = SURFACE_STYLE_USAGE ( .BOTH. , #211 ) ;
#257 = CARTESIAN_POINT ( 'NONE',  ( 0.0000000000000000000, 0.0000000000000000000, -1.374999999999999600 ) ) ;
#258 = DIRECTION ( 'NONE',  ( 1.000000000000000000, 0.0000000000000000000, -0.0000000000000000000 ) ) ;
#259 = ORIENTED_EDGE ( 'NONE', *, *, #267, .F. ) ;
#260 = FILL_AREA_STYLE ('',( #38 ) ) ;
#261 = PRODUCT_DEFINITION_FORMATION_WITH_SPECIFIED_SOURCE ( 'ANY', '', #107, .NOT_KNOWN. ) ;
#262 = LINE ( 'NONE', #280, #89 ) ;
#263 = CIRCLE ( 'NONE', #43, 3.399999999999999900 ) ;
#264 = PRODUCT_DEFINITION ( 'UNKNOWN', '', #261, #4 ) ;
#265 = DIRECTION ( 'NONE',  ( 0.0000000000000000000, -0.0000000000000000000, 1.000000000000000000 ) ) ;
#266 = PLANE ( 'NONE',  #53 ) ;
#267 = EDGE_CURVE ( 'NONE', #222, #122, #72, .T. ) ;
#268 = VECTOR ( 'NONE', #382, 1000.000000000000000 ) ;
#269 = ORIENTED_EDGE ( 'NONE', *, *, #372, .T. ) ;
#270 =( GEOMETRIC_REPRESENTATION_CONTEXT ( 3 ) GLOBAL_UNCERTAINTY_ASSIGNED_CONTEXT ( ( #102 ) ) GLOBAL_UNIT_ASSIGNED_CONTEXT ( ( #185, #186, #215 ) ) REPRESENTATION_CONTEXT ( 'NONE', 'WORKASPACE' ) );
#271 = DIRECTION ( 'NONE',  ( 0.0000000000000000000, 1.000000000000000000, 0.0000000000000000000 ) ) ;
#272 = ORIENTED_EDGE ( 'NONE', *, *, #143, .F. ) ;
#273 = FILL_AREA_STYLE_COLOUR ( '', #141 ) ;
#274 = VERTEX_POINT ( 'NONE', #363 ) ;
#275 = FACE_OUTER_BOUND ( 'NONE', #230, .T. ) ;
#276 = CONICAL_SURFACE ( 'NONE', #87, 3.399999999999999500, 0.7853981633974476100 ) ;
#277 = PRESENTATION_STYLE_ASSIGNMENT (( #376 ) ) ;
#278 = VECTOR ( 'NONE', #394, 1000.000000000000000 ) ;
#279 = EDGE_LOOP ( 'NONE', ( #88, #30, #366, #63 ) ) ;
#280 = CARTESIAN_POINT ( 'NONE',  ( -4.025000000000000400, 4.929203366568097200E-016, 2.000000000000000000 ) ) ;
#281 = DIRECTION ( 'NONE',  ( -0.0000000000000000000, -0.0000000000000000000, 1.000000000000000000 ) ) ;
#282 = CARTESIAN_POINT ( 'NONE',  ( -7.999999999999996400, 9.499999999999998200, 2.000000000000000000 ) ) ;
#283 = EDGE_LOOP ( 'NONE', ( #344, #383, #56, #49 ) ) ;
#284 = DIRECTION ( 'NONE',  ( -1.000000000000000000, -2.168404344971008900E-016, 0.0000000000000000000 ) ) ;
#285 = DIRECTION ( 'NONE',  ( 1.000000000000000000, 0.0000000000000000000, 0.0000000000000000000 ) ) ;
#286 = ADVANCED_FACE ( 'NONE', ( #130 ), #276, .F. ) ;
#287 = CARTESIAN_POINT ( 'NONE',  ( 3.399999999999999500, 0.0000000000000000000, 2.000000000000000000 ) ) ;
#288 = ORIENTED_EDGE ( 'NONE', *, *, #346, .F. ) ;
#289 = VERTEX_POINT ( 'NONE', #208 ) ;
#290 = VERTEX_POINT ( 'NONE', #358 ) ;
#291 = CIRCLE ( 'NONE', #79, 4.025000000000000400 ) ;
#292 = CIRCLE ( 'NONE', #46, 4.025000000000000400 ) ;
#293 = AXIS2_PLACEMENT_3D ( 'NONE', #176, #123, #128 ) ;
#294 = ORIENTED_EDGE ( 'NONE', *, *, #175, .F. ) ;
#295 = CARTESIAN_POINT ( 'NONE',  ( 0.0000000000000000000, 0.0000000000000000000, 2.000000000000000000 ) ) ;
#296 = DIRECTION ( 'NONE',  ( 1.000000000000000000, 1.084202172485504400E-016, -0.0000000000000000000 ) ) ;
#297 = CARTESIAN_POINT ( 'NONE',  ( 8.000000000000003600, -9.499999999999998200, 2.000000000000000000 ) ) ;
#298 = CARTESIAN_POINT ( 'NONE',  ( 0.0000000000000000000, 0.0000000000000000000, -2.000000000000000900 ) ) ;
#299 = EDGE_LOOP ( 'NONE', ( #272, #70, #132, #37 ) ) ;
#300 = ORIENTED_EDGE ( 'NONE', *, *, #69, .F. ) ;
#301 = FILL_AREA_STYLE_COLOUR ( '', #18 ) ;
#302 = DIRECTION ( 'NONE',  ( -0.0000000000000000000, -0.0000000000000000000, 1.000000000000000000 ) ) ;
#303 = ORIENTED_EDGE ( 'NONE', *, *, #393, .F. ) ;
#304 = CARTESIAN_POINT ( 'NONE',  ( -3.399999999999999500, 0.0000000000000000000, -1.374999999999999600 ) ) ;
#305 = CARTESIAN_POINT ( 'NONE',  ( 0.0000000000000000000, 0.0000000000000000000, -1.374999999999999600 ) ) ;
#306 = CARTESIAN_POINT ( 'NONE',  ( 0.0000000000000000000, 0.0000000000000000000, -2.000000000000000000 ) ) ;
#307 = CARTESIAN_POINT ( 'NONE',  ( 8.000000000000003600, 9.500000000000001800, 2.000000000000000000 ) ) ;
#308 = EDGE_CURVE ( 'NONE', #290, #22, #292, .T. ) ;
#309 = CARTESIAN_POINT ( 'NONE',  ( -4.025000000000000400, 0.0000000000000000000, -2.000000000000000900 ) ) ;
#310 = CARTESIAN_POINT ( 'NONE',  ( -7.999999999999996400, -9.500000000000000000, 2.000000000000000000 ) ) ;
#311 = DIRECTION ( 'NONE',  ( 1.000000000000000000, 0.0000000000000000000, 0.0000000000000000000 ) ) ;
#312 = FACE_OUTER_BOUND ( 'NONE', #299, .T. ) ;
#313 =( GEOMETRIC_REPRESENTATION_CONTEXT ( 3 ) GLOBAL_UNCERTAINTY_ASSIGNED_CONTEXT ( ( #201 ) ) GLOBAL_UNIT_ASSIGNED_CONTEXT ( ( #126, #129, #145 ) ) REPRESENTATION_CONTEXT ( 'NONE', 'WORKASPACE' ) );
#314 = VERTEX_POINT ( 'NONE', #392 ) ;
#315 = CARTESIAN_POINT ( 'NONE',  ( 8.000000000000003600, -9.499999999999998200, -2.000000000000000000 ) ) ;
#316 = MECHANICAL_DESIGN_GEOMETRIC_PRESENTATION_REPRESENTATION (  '', ( #336 ), #313 ) ;
#317 = DIRECTION ( 'NONE',  ( -0.0000000000000000000, -0.0000000000000000000, 1.000000000000000000 ) ) ;
#318 = CIRCLE ( 'NONE', #199, 3.399999999999999500 ) ;
#319 = VERTEX_POINT ( 'NONE', #364 ) ;
#320 = CARTESIAN_POINT ( 'NONE',  ( 3.399999999999999500, 4.163799117101000100E-016, -1.374999999999999600 ) ) ;
#321 = DIRECTION ( 'NONE',  ( -0.0000000000000000000, -0.0000000000000000000, -1.000000000000000000 ) ) ;
#322 = ADVANCED_FACE ( 'NONE', ( #182, #109 ), #335, .T. ) ;
#323 = ORIENTED_EDGE ( 'NONE', *, *, #403, .F. ) ;
#324 = DIRECTION ( 'NONE',  ( -0.0000000000000000000, -1.000000000000000000, -0.0000000000000000000 ) ) ;
#325 = PRESENTATION_LAYER_ASSIGNMENT (  '', '', ( #336 ) ) ;
#326 = DIRECTION ( 'NONE',  ( 1.000000000000000000, 0.0000000000000000000, 0.0000000000000000000 ) ) ;
#327 = DIRECTION ( 'NONE',  ( 1.000000000000000000, 0.0000000000000000000, -0.0000000000000000000 ) ) ;
#328 = AXIS2_PLACEMENT_3D ( 'NONE', #68, #80, #118 ) ;
#329 = CARTESIAN_POINT ( 'NONE',  ( -7.999999999999996400, -9.500000000000000000, 2.000000000000000000 ) ) ;
#330 = PLANE ( 'NONE',  #117 ) ;
#331 = CARTESIAN_POINT ( 'NONE',  ( 0.0000000000000000000, 0.0000000000000000000, 2.000000000000000000 ) ) ;
#332 = CONICAL_SURFACE ( 'NONE', #101, 4.025000000000000400, 0.7853981633974492800 ) ;
#333 = ORIENTED_EDGE ( 'NONE', *, *, #236, .F. ) ;
#334 = DIRECTION ( 'NONE',  ( -0.0000000000000000000, -0.0000000000000000000, 1.000000000000000000 ) ) ;
#335 = PLANE ( 'NONE',  #36 ) ;
#336 = STYLED_ITEM ( 'NONE', ( #155 ), #5 ) ;
#337 = CARTESIAN_POINT ( 'NONE',  ( 8.000000000000003600, 9.500000000000001800, 2.000000000000000000 ) ) ;
#338 = ORIENTED_EDGE ( 'NONE', *, *, #403, .T. ) ;
#339 = DIRECTION ( 'NONE',  ( -1.000000000000000000, 0.0000000000000000000, 0.0000000000000000000 ) ) ;
#340 = LINE ( 'NONE', #307, #17 ) ;
#341 = ORIENTED_EDGE ( 'NONE', *, *, #47, .F. ) ;
#342 = EDGE_CURVE ( 'NONE', #314, #289, #34, .T. ) ;
#343 = DIRECTION ( 'NONE',  ( -0.0000000000000000000, -0.0000000000000000000, 1.000000000000000000 ) ) ;
#344 = ORIENTED_EDGE ( 'NONE', *, *, #342, .F. ) ;
#345 = EDGE_CURVE ( 'NONE', #67, #147, #99, .T. ) ;
#346 = EDGE_CURVE ( 'NONE', #119, #67, #26, .T. ) ;
#347 = LINE ( 'NONE', #238, #248 ) ;
#348 = PRESENTATION_STYLE_ASSIGNMENT (( #256 ) ) ;
#349 = EDGE_CURVE ( 'NONE', #134, #381, #263, .T. ) ;
#350 = CARTESIAN_POINT ( 'NONE',  ( 0.0000000000000000000, 0.0000000000000000000, 2.000000000000000000 ) ) ;
#351 = DIRECTION ( 'NONE',  ( 0.0000000000000000000, -0.0000000000000000000, 1.000000000000000000 ) ) ;
#352 = STYLED_ITEM ( 'NONE', ( #2 ), #8 ) ;
#353 = DIRECTION ( 'NONE',  ( 0.7071067811865470200, 8.659560562354926700E-017, -0.7071067811865480200 ) ) ;
#354 = CARTESIAN_POINT ( 'NONE',  ( -7.999999999999996400, -9.500000000000000000, 2.000000000000000000 ) ) ;
#355 = ADVANCED_FACE ( 'NONE', ( #371 ), #217, .F. ) ;
#356 = ORIENTED_EDGE ( 'NONE', *, *, #395, .F. ) ;
#357 = DIRECTION ( 'NONE',  ( 1.000000000000000000, 0.0000000000000000000, 0.0000000000000000000 ) ) ;
#358 = CARTESIAN_POINT ( 'NONE',  ( -4.025000000000000400, 4.929203366568097200E-016, 2.000000000000000000 ) ) ;
#359 = FACE_OUTER_BOUND ( 'NONE', #378, .T. ) ;
#360 = VECTOR ( 'NONE', #321, 1000.000000000000000 ) ;
#361 = DIRECTION ( 'NONE',  ( -0.0000000000000000000, -0.0000000000000000000, 1.000000000000000000 ) ) ;
#362 = SURFACE_STYLE_FILL_AREA ( #149 ) ;
#363 = CARTESIAN_POINT ( 'NONE',  ( -3.399999999999999500, 0.0000000000000000000, -1.374999999999999600 ) ) ;
#364 = CARTESIAN_POINT ( 'NONE',  ( -7.999999999999996400, 9.499999999999998200, -2.000000000000000000 ) ) ;
#365 = DIRECTION ( 'NONE',  ( -0.0000000000000000000, -0.0000000000000000000, 1.000000000000000000 ) ) ;
#366 = ORIENTED_EDGE ( 'NONE', *, *, #251, .T. ) ;
#367 = FILL_AREA_STYLE ('',( #273 ) ) ;
#368 = PRESENTATION_LAYER_ASSIGNMENT (  '', '', ( #352 ) ) ;
#369 = CYLINDRICAL_SURFACE ( 'NONE', #219, 3.399999999999999500 ) ;
#370 =( GEOMETRIC_REPRESENTATION_CONTEXT ( 3 ) GLOBAL_UNCERTAINTY_ASSIGNED_CONTEXT ( ( #115 ) ) GLOBAL_UNIT_ASSIGNED_CONTEXT ( ( #179, #187, #244 ) ) REPRESENTATION_CONTEXT ( 'NONE', 'WORKASPACE' ) );
#371 = FACE_OUTER_BOUND ( 'NONE', #73, .T. ) ;
#372 = EDGE_CURVE ( 'NONE', #122, #319, #406, .T. ) ;
#373 = LINE ( 'NONE', #249, #278 ) ;
#374 = EDGE_LOOP ( 'NONE', ( #245, #96, #142, #294 ) ) ;
#375 = EDGE_CURVE ( 'NONE', #274, #314, #318, .T. ) ;
#376 = SURFACE_STYLE_USAGE ( .BOTH. , #213 ) ;
#377 = MECHANICAL_DESIGN_GEOMETRIC_PRESENTATION_REPRESENTATION (  '', ( #352 ), #384 ) ;
#378 = EDGE_LOOP ( 'NONE', ( #19, #400, #333, #66 ) ) ;
#379 = CARTESIAN_POINT ( 'NONE',  ( 8.000000000000003600, 9.500000000000001800, -2.000000000000000000 ) ) ;
#380 =( LENGTH_UNIT ( ) NAMED_UNIT ( * ) SI_UNIT ( .MILLI., .METRE. ) );
#381 = VERTEX_POINT ( 'NONE', #247 ) ;
#382 = DIRECTION ( 'NONE',  ( -0.0000000000000000000, -1.000000000000000000, -0.0000000000000000000 ) ) ;
#383 = ORIENTED_EDGE ( 'NONE', *, *, #150, .T. ) ;
#384 =( GEOMETRIC_REPRESENTATION_CONTEXT ( 3 ) GLOBAL_UNCERTAINTY_ASSIGNED_CONTEXT ( ( #173 ) ) GLOBAL_UNIT_ASSIGNED_CONTEXT ( ( #232, #180, #200 ) ) REPRESENTATION_CONTEXT ( 'NONE', 'WORKASPACE' ) );
#385 = DIRECTION ( 'NONE',  ( 1.000000000000000000, 0.0000000000000000000, 0.0000000000000000000 ) ) ;
#386 =( GEOMETRIC_REPRESENTATION_CONTEXT ( 3 ) GLOBAL_UNCERTAINTY_ASSIGNED_CONTEXT ( ( #44 ) ) GLOBAL_UNIT_ASSIGNED_CONTEXT ( ( #380, #21, #20 ) ) REPRESENTATION_CONTEXT ( 'NONE', 'WORKASPACE' ) );
#387 = ORIENTED_EDGE ( 'NONE', *, *, #251, .F. ) ;
#388 = ADVANCED_FACE ( 'NONE', ( #52 ), #161, .F. ) ;
#389 = DIRECTION ( 'NONE',  ( 1.000000000000000000, 2.168404344971008900E-016, 0.0000000000000000000 ) ) ;
#390 = ORIENTED_EDGE ( 'NONE', *, *, #308, .F. ) ;
#391 = EDGE_CURVE ( 'NONE', #381, #134, #396, .T. ) ;
#392 = CARTESIAN_POINT ( 'NONE',  ( 3.399999999999999500, 4.546501241834548900E-016, -1.374999999999999600 ) ) ;
#393 = EDGE_CURVE ( 'NONE', #119, #319, #131, .T. ) ;
#394 = DIRECTION ( 'NONE',  ( 1.000000000000000000, 1.084202172485504400E-016, -0.0000000000000000000 ) ) ;
#395 = EDGE_CURVE ( 'NONE', #229, #289, #139, .T. ) ;
#396 = CIRCLE ( 'NONE', #328, 3.399999999999999900 ) ;
#397 = EDGE_CURVE ( 'NONE', #274, #229, #195, .T. ) ;
#398 = SHAPE_DEFINITION_REPRESENTATION ( #231, #5 ) ;
#399 = EDGE_CURVE ( 'NONE', #147, #222, #373, .T. ) ;
#400 = ORIENTED_EDGE ( 'NONE', *, *, #164, .F. ) ;
#401 = DIRECTION ( 'NONE',  ( -1.084202172485504400E-016, 1.000000000000000000, 0.0000000000000000000 ) ) ;
#402 = AXIS2_PLACEMENT_3D ( 'NONE', #298, #317, #326 ) ;
#403 = EDGE_CURVE ( 'NONE', #314, #381, #100, .T. ) ;
#404 = LINE ( 'NONE', #235, #216 ) ;
#405 = AXIS2_PLACEMENT_3D ( 'NONE', #94, #218, #224 ) ;
#406 = LINE ( 'NONE', #83, #65 ) ;
ENDSEC;
END-ISO-10303-21;
